  0
SECTION
  2
HEADER
  9
$ACADVER
  1
AC1027
  9
$ACADMAINTVER
 70
    20
  9
$DWGCODEPAGE
  3
ANSI_1252
  9
$REQUIREDVERSIONS
160
                 0
  9
$INSBASE
 10
0.0
 20
0.0
 30
0.0
  9
$EXTMIN
 10
596.3664074431618
 20
1773.245878730033
 30
-0.00000001
  9
$EXTMAX
 10
1100.114353953116
 20
2065.999999999993
 30
0.00000001
  9
$LIMMIN
 10
0.0
 20
0.0
  9
$LIMMAX
 10
12.0
 20
9.0
  9
$ORTHOMODE
 70
     0
  9
$REGENMODE
 70
     1
  9
$FILLMODE
 70
     1
  9
$QTEXTMODE
 70
     0
  9
$MIRRTEXT
 70
     0
  9
$LTSCALE
 40
1.0
  9
$ATTMODE
 70
     1
  9
$TEXTSIZE
 40
0.2
  9
$TRACEWID
 40
0.05
  9
$TEXTSTYLE
  7
Standard
  9
$CLAYER
  8
0
  9
$CELTYPE
  6
ByLayer
  9
$CECOLOR
 62
   256
  9
$CELTSCALE
 40
1.0
  9
$DISPSILH
 70
     0
  9
$DIMSCALE
 40
1.0
  9
$DIMASZ
 40
0.18
  9
$DIMEXO
 40
0.0625
  9
$DIMDLI
 40
0.38
  9
$DIMRND
 40
0.0
  9
$DIMDLE
 40
0.0
  9
$DIMEXE
 40
0.18
  9
$DIMTP
 40
0.0
  9
$DIMTM
 40
0.0
  9
$DIMTXT
 40
0.18
  9
$DIMCEN
 40
0.09
  9
$DIMTSZ
 40
0.0
  9
$DIMTOL
 70
     0
  9
$DIMLIM
 70
     0
  9
$DIMTIH
 70
     1
  9
$DIMTOH
 70
     1
  9
$DIMSE1
 70
     0
  9
$DIMSE2
 70
     0
  9
$DIMTAD
 70
     0
  9
$DIMZIN
 70
     0
  9
$DIMBLK
  1

  9
$DIMASO
 70
     1
  9
$DIMSHO
 70
     1
  9
$DIMPOST
  1

  9
$DIMAPOST
  1

  9
$DIMALT
 70
     0
  9
$DIMALTD
 70
     2
  9
$DIMALTF
 40
25.4
  9
$DIMLFAC
 40
1.0
  9
$DIMTOFL
 70
     0
  9
$DIMTVP
 40
0.0
  9
$DIMTIX
 70
     0
  9
$DIMSOXD
 70
     0
  9
$DIMSAH
 70
     0
  9
$DIMBLK1
  1

  9
$DIMBLK2
  1

  9
$DIMSTYLE
  2
Standard
  9
$DIMCLRD
 70
     0
  9
$DIMCLRE
 70
     0
  9
$DIMCLRT
 70
     0
  9
$DIMTFAC
 40
1.0
  9
$DIMGAP
 40
0.09
  9
$DIMJUST
 70
     0
  9
$DIMSD1
 70
     0
  9
$DIMSD2
 70
     0
  9
$DIMTOLJ
 70
     1
  9
$DIMTZIN
 70
     0
  9
$DIMALTZ
 70
     0
  9
$DIMALTTZ
 70
     0
  9
$DIMUPT
 70
     0
  9
$DIMDEC
 70
     4
  9
$DIMTDEC
 70
     4
  9
$DIMALTU
 70
     2
  9
$DIMALTTD
 70
     2
  9
$DIMTXSTY
  7
Standard
  9
$DIMAUNIT
 70
     0
  9
$DIMADEC
 70
     0
  9
$DIMALTRND
 40
0.0
  9
$DIMAZIN
 70
     0
  9
$DIMDSEP
 70
    46
  9
$DIMATFIT
 70
     3
  9
$DIMFRAC
 70
     0
  9
$DIMLDRBLK
  1

  9
$DIMLUNIT
 70
     2
  9
$DIMLWD
 70
    -2
  9
$DIMLWE
 70
    -2
  9
$DIMTMOVE
 70
     0
  9
$DIMFXL
 40
1.0
  9
$DIMFXLON
 70
     0
  9
$DIMJOGANG
 40
0.7853981633974483
  9
$DIMTFILL
 70
     0
  9
$DIMTFILLCLR
 70
     0
  9
$DIMARCSYM
 70
     0
  9
$DIMLTYPE
  6

  9
$DIMLTEX1
  6

  9
$DIMLTEX2
  6

  9
$DIMTXTDIRECTION
 70
     0
  9
$LUNITS
 70
     2
  9
$LUPREC
 70
     4
  9
$SKETCHINC
 40
0.1
  9
$FILLETRAD
 40
0.0
  9
$AUNITS
 70
     0
  9
$AUPREC
 70
     0
  9
$MENU
  1
.
  9
$ELEVATION
 40
0.0
  9
$PELEVATION
 40
0.0
  9
$THICKNESS
 40
0.0
  9
$LIMCHECK
 70
     0
  9
$CHAMFERA
 40
0.0
  9
$CHAMFERB
 40
0.0
  9
$CHAMFERC
 40
0.0
  9
$CHAMFERD
 40
0.0
  9
$SKPOLY
 70
     0
  9
$TDCREATE
 40
2457539.699099352
  9
$TDUCREATE
 40
2457539.615766019
  9
$TDUPDATE
 40
2457539.699099352
  9
$TDUUPDATE
 40
2457539.615766019
  9
$TDINDWG
 40
0.0000115046
  9
$TDUSRTIMER
 40
0.0000115046
  9
$USRTIMER
 70
     1
  9
$ANGBASE
 50
0.0
  9
$ANGDIR
 70
     0
  9
$PDMODE
 70
     0
  9
$PDSIZE
 40
0.0
  9
$PLINEWID
 40
0.0
  9
$SPLFRAME
 70
     0
  9
$SPLINETYPE
 70
     6
  9
$SPLINESEGS
 70
     8
  9
$HANDSEED
  5
2B1
  9
$SURFTAB1
 70
     6
  9
$SURFTAB2
 70
     6
  9
$SURFTYPE
 70
     6
  9
$SURFU
 70
     6
  9
$SURFV
 70
     6
  9
$UCSBASE
  2

  9
$UCSNAME
  2

  9
$UCSORG
 10
0.0
 20
0.0
 30
0.0
  9
$UCSXDIR
 10
1.0
 20
0.0
 30
0.0
  9
$UCSYDIR
 10
0.0
 20
1.0
 30
0.0
  9
$UCSORTHOREF
  2

  9
$UCSORTHOVIEW
 70
     0
  9
$UCSORGTOP
 10
0.0
 20
0.0
 30
0.0
  9
$UCSORGBOTTOM
 10
0.0
 20
0.0
 30
0.0
  9
$UCSORGLEFT
 10
0.0
 20
0.0
 30
0.0
  9
$UCSORGRIGHT
 10
0.0
 20
0.0
 30
0.0
  9
$UCSORGFRONT
 10
0.0
 20
0.0
 30
0.0
  9
$UCSORGBACK
 10
0.0
 20
0.0
 30
0.0
  9
$PUCSBASE
  2

  9
$PUCSNAME
  2

  9
$PUCSORG
 10
0.0
 20
0.0
 30
0.0
  9
$PUCSXDIR
 10
1.0
 20
0.0
 30
0.0
  9
$PUCSYDIR
 10
0.0
 20
1.0
 30
0.0
  9
$PUCSORTHOREF
  2

  9
$PUCSORTHOVIEW
 70
     0
  9
$PUCSORGTOP
 10
0.0
 20
0.0
 30
0.0
  9
$PUCSORGBOTTOM
 10
0.0
 20
0.0
 30
0.0
  9
$PUCSORGLEFT
 10
0.0
 20
0.0
 30
0.0
  9
$PUCSORGRIGHT
 10
0.0
 20
0.0
 30
0.0
  9
$PUCSORGFRONT
 10
0.0
 20
0.0
 30
0.0
  9
$PUCSORGBACK
 10
0.0
 20
0.0
 30
0.0
  9
$USERI1
 70
     0
  9
$USERI2
 70
     0
  9
$USERI3
 70
     0
  9
$USERI4
 70
     0
  9
$USERI5
 70
     0
  9
$USERR1
 40
0.0
  9
$USERR2
 40
0.0
  9
$USERR3
 40
0.0
  9
$USERR4
 40
0.0
  9
$USERR5
 40
0.0
  9
$WORLDVIEW
 70
     1
  9
$SHADEDGE
 70
     3
  9
$SHADEDIF
 70
    70
  9
$TILEMODE
 70
     1
  9
$MAXACTVP
 70
    64
  9
$PINSBASE
 10
0.0
 20
0.0
 30
0.0
  9
$PLIMCHECK
 70
     0
  9
$PEXTMIN
 10
1.000000000000000E+20
 20
1.000000000000000E+20
 30
1.000000000000000E+20
  9
$PEXTMAX
 10
-1.000000000000000E+20
 20
-1.000000000000000E+20
 30
-1.000000000000000E+20
  9
$PLIMMIN
 10
0.0
 20
0.0
  9
$PLIMMAX
 10
12.0
 20
9.0
  9
$UNITMODE
 70
     0
  9
$VISRETAIN
 70
     1
  9
$PLINEGEN
 70
     0
  9
$PSLTSCALE
 70
     1
  9
$TREEDEPTH
 70
  3020
  9
$CMLSTYLE
  2
Standard
  9
$CMLJUST
 70
     0
  9
$CMLSCALE
 40
1.0
  9
$PROXYGRAPHICS
 70
     1
  9
$MEASUREMENT
 70
     1
  9
$CELWEIGHT
370
    -1
  9
$ENDCAPS
280
     0
  9
$JOINSTYLE
280
     0
  9
$LWDISPLAY
290
     0
  9
$INSUNITS
 70
     4
  9
$HYPERLINKBASE
  1

  9
$STYLESHEET
  1

  9
$XEDIT
290
     1
  9
$CEPSNTYPE
380
     0
  9
$PSTYLEMODE
290
     1
  9
$FINGERPRINTGUID
  2
{D9B901DC-D7A9-4B54-B5C9-D264872A1E03}
  9
$VERSIONGUID
  2
{2273A515-A225-4B63-971C-13054583D723}
  9
$EXTNAMES
290
     1
  9
$PSVPSCALE
 40
0.0
  9
$OLESTARTUP
290
     0
  9
$SORTENTS
280
   127
  9
$INDEXCTL
280
     0
  9
$HIDETEXT
280
     1
  9
$XCLIPFRAME
280
     2
  9
$HALOGAP
280
     0
  9
$OBSCOLOR
 70
   257
  9
$OBSLTYPE
280
     0
  9
$INTERSECTIONDISPLAY
280
     0
  9
$INTERSECTIONCOLOR
 70
   257
  9
$DIMASSOC
280
     2
  9
$PROJECTNAME
  1

  9
$CAMERADISPLAY
290
     0
  9
$LENSLENGTH
 40
50.0
  9
$CAMERAHEIGHT
 40
0.0
  9
$STEPSPERSEC
 40
2.0
  9
$STEPSIZE
 40
6.0
  9
$3DDWFPREC
 40
2.0
  9
$PSOLWIDTH
 40
0.25
  9
$PSOLHEIGHT
 40
4.0
  9
$LOFTANG1
 40
1.570796326794896
  9
$LOFTANG2
 40
1.570796326794896
  9
$LOFTMAG1
 40
0.0
  9
$LOFTMAG2
 40
0.0
  9
$LOFTPARAM
 70
     7
  9
$LOFTNORMALS
280
     1
  9
$LATITUDE
 40
37.795
  9
$LONGITUDE
 40
-122.394
  9
$NORTHDIRECTION
 40
0.0
  9
$TIMEZONE
 70
 -8000
  9
$LIGHTGLYPHDISPLAY
280
     1
  9
$TILEMODELIGHTSYNCH
280
     1
  9
$CMATERIAL
347
11
  9
$SOLIDHIST
280
     0
  9
$SHOWHIST
280
     1
  9
$DWFFRAME
280
     2
  9
$DGNFRAME
280
     0
  9
$REALWORLDSCALE
290
     1
  9
$INTERFERECOLOR
 62
     1
  9
$INTERFEREOBJVS
345
33
  9
$INTERFEREVPVS
346
30
  9
$CSHADOW
280
     0
  9
$SHADOWPLANELOCATION
 40
0.0
  0
ENDSEC
  0
SECTION
  2
CLASSES
  0
CLASS
  1
ACDBDICTIONARYWDFLT
  2
AcDbDictionaryWithDefault
  3
ObjectDBX Classes
 90
        0
 91
        1
280
     0
281
     0
  0
CLASS
  1
MATERIAL
  2
AcDbMaterial
  3
ObjectDBX Classes
 90
     1153
 91
        3
280
     0
281
     0
  0
CLASS
  1
VISUALSTYLE
  2
AcDbVisualStyle
  3
ObjectDBX Classes
 90
     4095
 91
       24
280
     0
281
     0
  0
CLASS
  1
SCALE
  2
AcDbScale
  3
ObjectDBX Classes
 90
     1153
 91
       17
280
     0
281
     0
  0
CLASS
  1
TABLESTYLE
  2
AcDbTableStyle
  3
ObjectDBX Classes
 90
     4095
 91
        1
280
     0
281
     0
  0
CLASS
  1
MLEADERSTYLE
  2
AcDbMLeaderStyle
  3
ACDB_MLEADERSTYLE_CLASS
 90
     4095
 91
        1
280
     0
281
     0
  0
CLASS
  1
ACDBSECTIONVIEWSTYLE
  2
AcDbSectionViewStyle
  3
ObjectDBX Classes
 90
     1025
 91
        1
280
     0
281
     0
  0
CLASS
  1
ACDBDETAILVIEWSTYLE
  2
AcDbDetailViewStyle
  3
ObjectDBX Classes
 90
     1025
 91
        1
280
     0
281
     0
  0
CLASS
  1
RASTERVARIABLES
  2
AcDbRasterVariables
  3
ISM
 90
        0
 91
        1
280
     0
281
     0
  0
CLASS
  1
DICTIONARYVAR
  2
AcDbDictionaryVar
  3
ObjectDBX Classes
 90
        0
 91
        5
280
     0
281
     0
  0
CLASS
  1
CELLSTYLEMAP
  2
AcDbCellStyleMap
  3
ObjectDBX Classes
 90
     1152
 91
        2
280
     0
281
     0
  0
CLASS
  1
SORTENTSTABLE
  2
AcDbSortentsTable
  3
ObjectDBX Classes
 90
        0
 91
        1
280
     0
281
     0
  0
ENDSEC
  0
SECTION
  2
TABLES
  0
TABLE
  2
VPORT
  5
8
330
0
100
AcDbSymbolTable
 70
     1
  0
VPORT
  5
57
330
8
100
AcDbSymbolTableRecord
100
AcDbViewportTableRecord
  2
*Active
 70
     0
 10
0.0
 20
0.0
 11
1.0
 21
1.0
 12
848.2403806981389
 22
1919.622939365013
 13
0.0
 23
0.0
 14
1.0
 24
1.0
 15
0.0
 25
0.0
 16
0.0
 26
0.0
 36
1.0
 17
0.0
 27
0.0
 37
0.0
 40
292.7541212699605
 41
1.72072025604527
 42
50.0
 43
0.0
 44
0.0
 50
0.0
 51
0.0
 71
     0
 72
  1000
 73
     1
 74
     1
 75
     0
 76
     0
 77
     0
 78
     0
281
     0
 65
     1
110
0.0
120
0.0
130
0.0
111
1.0
121
0.0
131
0.0
112
0.0
122
1.0
132
0.0
 79
     0
146
0.0
 60
     3
 61
     5
292
     1
282
     1
141
0.0
142
0.0
 63
   250
421
  3355443
  0
ENDTAB
  0
TABLE
  2
LTYPE
  5
5
330
0
100
AcDbSymbolTable
 70
     3
  0
LTYPE
  5
5B
330
5
100
AcDbSymbolTableRecord
100
AcDbLinetypeTableRecord
  2
ByBlock
 70
     0
  3

 72
    65
 73
     0
 40
0.0
  0
LTYPE
  5
5C
330
5
100
AcDbSymbolTableRecord
100
AcDbLinetypeTableRecord
  2
ByLayer
 70
     0
  3

 72
    65
 73
     0
 40
0.0
  0
LTYPE
  5
5D
330
5
100
AcDbSymbolTableRecord
100
AcDbLinetypeTableRecord
  2
Continuous
 70
     0
  3
Solid line
 72
    65
 73
     0
 40
0.0
  0
LTYPE
  5
69
330
5
100
AcDbSymbolTableRecord
100
AcDbLinetypeTableRecord
  2
PHANTOM2
 70
     0
  3
___ _ _ ___ _ _ ___ _ _ ___ _ _
 72
    65
 73
     6
 40
1.25
 49
0.625
 74
     0
 49
-0.125
 74
     0
 49
0.125
 74
     0
 49
-0.125
 74
     0
 49
0.125
 74
     0
 49
-0.125
 74
     0
  0
LTYPE
  5
86
330
5
100
AcDbSymbolTableRecord
100
AcDbLinetypeTableRecord
  2
Nascosto 1_5 mm
 70
     0
  3

 72
    65
 73
     2
 40
2.2
 49
1.5
 74
     0
 49
-0.7000000000000001
 74
     0
  0
ENDTAB
  0
TABLE
  2
LAYER
  5
2
330
0
100
AcDbSymbolTable
 70
     4
  0
LAYER
  5
54
330
2
100
AcDbSymbolTableRecord
100
AcDbLayerTableRecord
  2
0
 70
     0
 62
     7
  6
Continuous
370
    -3
390
F
347
21
348
0
  0
LAYER
  5
85
330
2
100
AcDbSymbolTableRecord
100
AcDbLayerTableRecord
  2
P-SANR-FIXT
 70
     0
 62
     6
  6
Continuous
370
    18
390
F
347
21
348
0
  0
LAYER
  5
88
330
2
100
AcDbSymbolTableRecord
100
AcDbLayerTableRecord
  2
M-PIPE
 70
     0
 62
     3
  6
Continuous
370
    18
390
F
347
21
348
0
  0
ENDTAB
  0
TABLE
  2
STYLE
  5
3
330
0
100
AcDbSymbolTable
 70
     2
  0
STYLE
  5
55
330
3
100
AcDbSymbolTableRecord
100
AcDbTextStyleTableRecord
  2
Standard
 70
     0
 40
0.0
 41
1.0
 50
0.0
 71
     0
 42
0.2
  3
txt
  4

  0
STYLE
  5
5A
330
3
100
AcDbSymbolTableRecord
100
AcDbTextStyleTableRecord
  2
Annotative
 70
     0
 40
0.0
 41
1.0
 50
0.0
 71
     0
 42
0.2
  3
txt
  4

1001
AcadAnnotative
1000
AnnotativeData
1002
{
1070
     1
1070
     1
1002
}
  0
ENDTAB
  0
TABLE
  2
VIEW
  5
6
330
0
100
AcDbSymbolTable
 70
     0
  0
ENDTAB
  0
TABLE
  2
UCS
  5
7
330
0
100
AcDbSymbolTable
 70
     0
  0
ENDTAB
  0
TABLE
  2
APPID
  5
9
330
0
100
AcDbSymbolTable
 70
     3
  0
APPID
  5
56
330
9
100
AcDbSymbolTableRecord
100
AcDbRegAppTableRecord
  2
ACAD
 70
     0
  0
APPID
  5
5E
330
9
100
AcDbSymbolTableRecord
100
AcDbRegAppTableRecord
  2
AcadAnnotative
 70
     0
  0
APPID
  5
79
330
9
100
AcDbSymbolTableRecord
100
AcDbRegAppTableRecord
  2
REVIT
 70
     0
  0
ENDTAB
  0
TABLE
  2
DIMSTYLE
  5
A
330
0
100
AcDbSymbolTable
 70
     2
100
AcDbDimStyleTable
 71
     0
  0
DIMSTYLE
105
58
330
A
100
AcDbSymbolTableRecord
100
AcDbDimStyleTableRecord
  2
Standard
 70
     0
340
55
  0
DIMSTYLE
105
59
330
A
100
AcDbSymbolTableRecord
100
AcDbDimStyleTableRecord
  2
Annotative
 70
     0
340
55
1001
AcadAnnotative
1000
AnnotativeData
1002
{
1070
     1
1070
     1
1002
}
  0
ENDTAB
  0
TABLE
  2
BLOCK_RECORD
  5
1
330
0
100
AcDbSymbolTable
 70
     4
  0
BLOCK_RECORD
  5
71
102
{ACAD_XDICTIONARY
360
2AC
102
}
330
1
100
AcDbSymbolTableRecord
100
AcDbBlockTableRecord
  2
*Model_Space
340
74
 70
     0
280
     1
281
     0
  0
BLOCK_RECORD
  5
6D
330
1
100
AcDbSymbolTableRecord
100
AcDbBlockTableRecord
  2
*Paper_Space
340
70
 70
     0
280
     1
281
     0
  0
BLOCK_RECORD
  5
75
330
1
100
AcDbSymbolTableRecord
100
AcDbBlockTableRecord
  2
*Paper_Space0
340
78
 70
     0
280
     1
281
     0
  0
BLOCK_RECORD
  5
87
330
1
100
AcDbSymbolTableRecord
100
AcDbBlockTableRecord
  2
Automatic flow rate regulator valve_Caleffi_121 DN15 - 1_2__-859151-Est - Idraulica
340
0
102
{BLKREFS
331
13A
102
}
 70
     0
280
     1
281
     0
  0
BLOCK_RECORD
  5
13B
330
1
100
AcDbSymbolTableRecord
100
AcDbBlockTableRecord
  2
Automatic flow rate regulator valve_Caleffi_121 DN15 - 1_2__-V1-Est - Idraulica
340
0
102
{BLKREFS
331
244
102
}
 70
     0
280
     1
281
     0
  0
BLOCK_RECORD
  5
245
330
1
100
AcDbSymbolTableRecord
100
AcDbBlockTableRecord
  2
Automatic flow rate regulator valve_Caleffi_121 DN15 - 1_2__-V2-Est - Idraulica
340
0
102
{BLKREFS
331
2A5
102
}
 70
     0
280
     1
281
     0
  0
ENDTAB
  0
ENDSEC
  0
SECTION
  2
BLOCKS
  0
BLOCK
  5
72
330
71
100
AcDbEntity
  8
0
100
AcDbBlockBegin
  2
*Model_Space
 70
     0
 10
0.0
 20
0.0
 30
0.0
  3
*Model_Space
  1

  0
ENDBLK
  5
73
330
71
100
AcDbEntity
  8
0
100
AcDbBlockEnd
  0
BLOCK
  5
6E
330
6D
100
AcDbEntity
 67
     1
  8
0
100
AcDbBlockBegin
  2
*Paper_Space
 70
     0
 10
0.0
 20
0.0
 30
0.0
  3
*Paper_Space
  1

  0
ENDBLK
  5
6F
330
6D
100
AcDbEntity
 67
     1
  8
0
100
AcDbBlockEnd
  0
BLOCK
  5
76
330
75
100
AcDbEntity
 67
     1
  8
0
100
AcDbBlockBegin
  2
*Paper_Space0
 70
     0
 10
0.0
 20
0.0
 30
0.0
  3
*Paper_Space0
  1

  0
ENDBLK
  5
77
330
75
100
AcDbEntity
 67
     1
  8
0
100
AcDbBlockEnd
  0
BLOCK
  5
138
330
87
100
AcDbEntity
  8
0
100
AcDbBlockBegin
  2
Automatic flow rate regulator valve_Caleffi_121 DN15 - 1_2__-859151-Est - Idraulica
 70
     0
 10
0.0
 20
0.0
 30
0.0
  3
Automatic flow rate regulator valve_Caleffi_121 DN15 - 1_2__-859151-Est - Idraulica
  1

  0
LINE
  5
89
330
87
100
AcDbEntity
  8
M-PIPE
100
AcDbLine
 10
608.366407443178
 20
1966.999999999977
 30
0.0
 11
610.0656078506188
 21
1964.056898562047
 31
0.0
1001
REVIT
1002
{
1070
     3
1000
790271
1002
}
  0
LINE
  5
8A
330
87
100
AcDbEntity
  8
M-PIPE
100
AcDbLine
 10
610.0671142549929
 20
1964.054289393135
 30
0.0
 11
610.0984582507434
 21
1963.999999999983
 31
0.0
1001
REVIT
1002
{
1070
     3
1000
790271
1002
}
  0
LINE
  5
8B
330
87
100
AcDbEntity
  8
M-PIPE
100
AcDbLine
 10
610.098458250729
 20
2035.999999999984
 30
0.0
 11
610.0671142549729
 21
2035.945710606823
 31
0.0
1001
REVIT
1002
{
1070
     3
1000
790271
1002
}
  0
LINE
  5
8C
330
87
100
AcDbEntity
  8
M-PIPE
100
AcDbLine
 10
610.0656078505988
 20
2035.94310143791
 30
0.0
 11
608.3664074431769
 21
2033.000000000013
 31
0.0
1001
REVIT
1002
{
1070
     3
1000
790271
1002
}
  0
LINE
  5
8D
330
87
100
AcDbEntity
  8
M-PIPE
100
AcDbLine
 10
634.3664074431769
 20
2033.000000000003
 30
0.0
 11
632.6672070357488
 21
2035.94310143791
 31
0.0
1001
REVIT
1002
{
1070
     3
1000
790271
1002
}
  0
LINE
  5
8E
330
87
100
AcDbEntity
  8
M-PIPE
100
AcDbLine
 10
632.6657006313746
 20
2035.945710606823
 30
0.0
 11
632.6343566356196
 21
2035.999999999983
 31
0.0
1001
REVIT
1002
{
1070
     3
1000
790271
1002
}
  0
LINE
  5
8F
330
87
100
AcDbEntity
  8
M-PIPE
100
AcDbLine
 10
632.6343566356053
 20
1963.999999999982
 30
0.0
 11
632.6657006313561
 21
1964.054289393135
 31
0.0
1001
REVIT
1002
{
1070
     3
1000
790271
1002
}
  0
LINE
  5
90
330
87
100
AcDbEntity
  8
M-PIPE
100
AcDbLine
 10
632.6672070357304
 20
1964.056898562047
 30
0.0
 11
634.3664074431778
 21
1966.999999999988
 31
0.0
1001
REVIT
1002
{
1070
     3
1000
790271
1002
}
  0
LINE
  5
91
330
87
100
AcDbEntity
  8
M-PIPE
100
AcDbLine
 10
632.634356635613
 20
2035.999999999979
 30
0.0
 11
610.0984582507362
 21
2035.999999999979
 31
0.0
1001
REVIT
1002
{
1070
     3
1000
790271
1002
}
  0
LINE
  5
92
330
87
100
AcDbEntity
  8
M-PIPE
100
AcDbLine
 10
610.0984582507362
 20
1963.999999999979
 30
0.0
 11
632.6343566356132
 21
1963.999999999979
 31
0.0
1001
REVIT
1002
{
1070
     3
1000
790271
1002
}
  0
LINE
  5
93
330
87
100
AcDbEntity
  8
M-PIPE
100
AcDbLine
 10
608.3664074431761
 20
2029.314052580697
 30
0.0
 11
608.3664074431761
 21
2028.578838324897
 31
0.0
1001
REVIT
1002
{
1070
     3
1000
790271
1002
}
  0
LINE
  5
94
330
87
100
AcDbEntity
  8
M-PIPE
100
AcDbLine
 10
608.3664074431761
 20
2028.578838324897
 30
0.0
 11
608.3664074431761
 21
2027.839034721274
 31
0.0
1001
REVIT
1002
{
1070
     3
1000
790271
1002
}
  0
LINE
  5
95
330
87
100
AcDbEntity
  8
M-PIPE
100
AcDbLine
 10
608.3664074431769
 20
1972.16096527876
 30
0.0
 11
608.366407443177
 21
1971.421161675093
 31
0.0
1001
REVIT
1002
{
1070
     3
1000
790271
1002
}
  0
LINE
  5
96
330
87
100
AcDbEntity
  8
M-PIPE
100
AcDbLine
 10
608.366407443177
 20
1971.421161675093
 30
0.0
 11
608.366407443177
 21
1970.686116646907
 31
0.0
1001
REVIT
1002
{
1070
     3
1000
790271
1002
}
  0
LINE
  5
97
330
87
100
AcDbEntity
  8
M-PIPE
100
AcDbLine
 10
608.3664074431773
 20
1966.999999999976
 30
0.0
 11
608.3664074431774
 21
1971.421161675092
 31
0.0
1001
REVIT
1002
{
1070
     3
1000
790271
1002
}
  0
LINE
  5
98
330
87
100
AcDbEntity
  8
M-PIPE
100
AcDbLine
 10
608.3664074431774
 20
1971.421161675092
 30
0.0
 11
608.3664074431772
 21
1999.999999999994
 31
0.0
1001
REVIT
1002
{
1070
     3
1000
790271
1002
}
  0
LINE
  5
99
330
87
100
AcDbEntity
  8
M-PIPE
100
AcDbLine
 10
608.3664074431772
 20
1999.999999999994
 30
0.0
 11
608.3664074431765
 21
2028.578838324897
 31
0.0
1001
REVIT
1002
{
1070
     3
1000
790271
1002
}
  0
LINE
  5
9A
330
87
100
AcDbEntity
  8
M-PIPE
100
AcDbLine
 10
608.3664074431765
 20
2028.578838324897
 30
0.0
 11
608.3664074431762
 21
2033.000000000013
 31
0.0
1001
REVIT
1002
{
1070
     3
1000
790271
1002
}
  0
LINE
  5
9B
330
87
100
AcDbEntity
  8
M-PIPE
100
AcDbLine
 10
634.3664074431769
 20
1970.68594741929
 30
0.0
 11
634.3664074431769
 21
1971.421161675102
 31
0.0
1001
REVIT
1002
{
1070
     3
1000
790271
1002
}
  0
LINE
  5
9C
330
87
100
AcDbEntity
  8
M-PIPE
100
AcDbLine
 10
634.3664074431769
 20
1971.421161675102
 30
0.0
 11
634.3664074431769
 21
1972.160965278766
 31
0.0
1001
REVIT
1002
{
1070
     3
1000
790271
1002
}
  0
LINE
  5
9D
330
87
100
AcDbEntity
  8
M-PIPE
100
AcDbLine
 10
634.3664074431759
 20
2027.839034721263
 30
0.0
 11
634.3664074431759
 21
2028.578838324888
 31
0.0
1001
REVIT
1002
{
1070
     3
1000
790271
1002
}
  0
LINE
  5
9E
330
87
100
AcDbEntity
  8
M-PIPE
100
AcDbLine
 10
634.366407443176
 20
2028.578838324888
 30
0.0
 11
634.366407443176
 21
2029.314052580695
 31
0.0
1001
REVIT
1002
{
1070
     3
1000
790271
1002
}
  0
LINE
  5
9F
330
87
100
AcDbEntity
  8
M-PIPE
100
AcDbLine
 10
634.366407443176
 20
2033.000000000002
 30
0.0
 11
634.3664074431764
 21
2028.578838324887
 31
0.0
1001
REVIT
1002
{
1070
     3
1000
790271
1002
}
  0
LINE
  5
A0
330
87
100
AcDbEntity
  8
M-PIPE
100
AcDbLine
 10
634.3664074431764
 20
2028.578838324887
 30
0.0
 11
634.3664074431771
 21
1999.999999999994
 31
0.0
1001
REVIT
1002
{
1070
     3
1000
790271
1002
}
  0
LINE
  5
A1
330
87
100
AcDbEntity
  8
M-PIPE
100
AcDbLine
 10
634.3664074431771
 20
1999.999999999994
 30
0.0
 11
634.3664074431773
 21
1971.421161675102
 31
0.0
1001
REVIT
1002
{
1070
     3
1000
790271
1002
}
  0
LINE
  5
A2
330
87
100
AcDbEntity
  8
M-PIPE
100
AcDbLine
 10
634.3664074431773
 20
1971.421161675102
 30
0.0
 11
634.3664074431772
 21
1966.999999999988
 31
0.0
1001
REVIT
1002
{
1070
     3
1000
790271
1002
}
  0
SPLINE
  5
A3
330
87
100
AcDbEntity
  8
M-PIPE
100
AcDbSpline
210
0.0
220
0.0
230
1.0
 70
     8
 71
     3
 72
     9
 73
     5
 74
     0
 42
0.000000001
 43
0.0000000001
 40
0.0
 40
0.0
 40
0.0
 40
0.0
 40
0.5
 40
1.0
 40
1.0
 40
1.0
 40
1.0
 10
610.0984582507471
 20
1978.61490896006
 30
0.0
 10
609.537753129904
 20
1977.444359291278
 30
0.0
 10
608.6883728744659
 20
1975.074851741669
 30
0.0
 10
608.3830525915235
 20
1972.648527767965
 30
0.0
 10
608.3664074431762
 20
1971.42116167509
 30
0.0
1001
REVIT
1002
{
1070
     3
1000
790271
1002
}
  0
SPLINE
  5
A4
330
87
100
AcDbEntity
  8
M-PIPE
100
AcDbSpline
210
0.0
220
0.0
230
1.0
 70
     8
 71
     3
 72
     9
 73
     5
 74
     0
 42
0.000000001
 43
0.0000000001
 40
0.0
 40
0.0
 40
0.0
 40
0.0
 40
0.5
 40
1.0
 40
1.0
 40
1.0
 40
1.0
 10
608.3664074431762
 20
1971.42116167509
 30
0.0
 10
608.3830525915234
 20
1970.193795582216
 30
0.0
 10
608.6883728744656
 20
1967.767471608513
 30
0.0
 10
609.5377531299033
 20
1965.397964058903
 30
0.0
 10
610.0984582507459
 20
1964.227414390122
 30
0.0
1001
REVIT
1002
{
1070
     3
1000
790271
1002
}
  0
LINE
  5
A5
330
87
100
AcDbEntity
  8
M-PIPE
100
AcDbLine
 10
610.0984582507459
 20
1964.227414390122
 30
0.0
 11
632.634356635602
 21
1964.227414390122
 31
0.0
1001
REVIT
1002
{
1070
     3
1000
790271
1002
}
  0
SPLINE
  5
A6
330
87
100
AcDbEntity
  8
M-PIPE
100
AcDbSpline
210
0.0
220
0.0
230
1.0
 70
     8
 71
     3
 72
     9
 73
     5
 74
     0
 42
0.000000001
 43
0.0000000001
 40
0.0
 40
0.0
 40
0.0
 40
0.0
 40
0.5
 40
1.0
 40
1.0
 40
1.0
 40
1.0
 10
632.634356635602
 20
1964.227414390122
 30
0.0
 10
633.1950617564439
 20
1965.397964058904
 30
0.0
 10
634.0444420118816
 20
1967.767471608513
 30
0.0
 10
634.3497622948267
 20
1970.193795582216
 30
0.0
 10
634.3664074431763
 20
1971.42116167509
 30
0.0
1001
REVIT
1002
{
1070
     3
1000
790271
1002
}
  0
SPLINE
  5
A7
330
87
100
AcDbEntity
  8
M-PIPE
100
AcDbSpline
210
0.0
220
0.0
230
1.0
 70
     8
 71
     3
 72
     9
 73
     5
 74
     0
 42
0.000000001
 43
0.0000000001
 40
0.0
 40
0.0
 40
0.0
 40
0.0
 40
0.5
 40
1.0
 40
1.0
 40
1.0
 40
1.0
 10
634.3664074431763
 20
1971.42116167509
 30
0.0
 10
634.3497622948266
 20
1972.648527767965
 30
0.0
 10
634.0444420118814
 20
1975.074851741668
 30
0.0
 10
633.1950617564432
 20
1977.444359291278
 30
0.0
 10
632.6343566356009
 20
1978.61490896006
 30
0.0
1001
REVIT
1002
{
1070
     3
1000
790271
1002
}
  0
LINE
  5
A8
330
87
100
AcDbEntity
  8
M-PIPE
100
AcDbLine
 10
632.6343566356009
 20
1978.61490896006
 30
0.0
 11
610.0984582507471
 21
1978.61490896006
 31
0.0
1001
REVIT
1002
{
1070
     3
1000
790271
1002
}
  0
SPLINE
  5
A9
330
87
100
AcDbEntity
  8
M-PIPE
100
AcDbSpline
210
0.0
220
0.0
230
1.0
 70
     8
 71
     3
 72
     9
 73
     5
 74
     0
 42
0.000000001
 43
0.0000000001
 40
0.0
 40
0.0
 40
0.0
 40
0.0
 40
0.5
 40
1.0
 40
1.0
 40
1.0
 40
1.0
 10
610.0984582507378
 20
2014.387494569915
 30
0.0
 10
609.5377531298953
 20
2012.046395232355
 30
0.0
 10
608.6883728744593
 20
2007.307380133142
 30
0.0
 10
608.383052591521
 20
2002.454732185742
 30
0.0
 10
608.3664074431762
 20
1999.999999999994
 30
0.0
1001
REVIT
1002
{
1070
     3
1000
790271
1002
}
  0
SPLINE
  5
AA
330
87
100
AcDbEntity
  8
M-PIPE
100
AcDbSpline
210
0.0
220
0.0
230
1.0
 70
     8
 71
     3
 72
     9
 73
     5
 74
     0
 42
0.000000001
 43
0.0000000001
 40
0.0
 40
0.0
 40
0.0
 40
0.0
 40
0.5
 40
1.0
 40
1.0
 40
1.0
 40
1.0
 10
608.3664074431762
 20
1999.999999999994
 30
0.0
 10
608.3830525915211
 20
1997.545267814241
 30
0.0
 10
608.688372874461
 20
1992.692619866829
 30
0.0
 10
609.5377531299009
 20
1987.953604767605
 30
0.0
 10
610.0984582507457
 20
1985.612505430039
 30
0.0
1001
REVIT
1002
{
1070
     3
1000
790271
1002
}
  0
LINE
  5
AB
330
87
100
AcDbEntity
  8
M-PIPE
100
AcDbLine
 10
610.0984582507457
 20
1985.612505430039
 30
0.0
 11
632.634356635602
 21
1985.612505430039
 31
0.0
1001
REVIT
1002
{
1070
     3
1000
790271
1002
}
  0
SPLINE
  5
AC
330
87
100
AcDbEntity
  8
M-PIPE
100
AcDbSpline
210
0.0
220
0.0
230
1.0
 70
     8
 71
     3
 72
     9
 73
     5
 74
     0
 42
0.000000001
 43
0.0000000001
 40
0.0
 40
0.0
 40
0.0
 40
0.0
 40
0.5
 40
1.0
 40
1.0
 40
1.0
 40
1.0
 10
632.634356635602
 20
1985.612505430039
 30
0.0
 10
633.195061756446
 20
1987.953604767605
 30
0.0
 10
634.0444420118858
 20
1992.692619866829
 30
0.0
 10
634.3497622948287
 20
1997.545267814241
 30
0.0
 10
634.366407443176
 20
1999.999999999993
 30
0.0
1001
REVIT
1002
{
1070
     3
1000
790271
1002
}
  0
SPLINE
  5
AD
330
87
100
AcDbEntity
  8
M-PIPE
100
AcDbSpline
210
0.0
220
0.0
230
1.0
 70
     8
 71
     3
 72
     9
 73
     5
 74
     0
 42
0.000000001
 43
0.0000000001
 40
0.0
 40
0.0
 40
0.0
 40
0.0
 40
0.5
 40
1.0
 40
1.0
 40
1.0
 40
1.0
 10
634.366407443176
 20
1999.999999999993
 30
0.0
 10
634.3497622948289
 20
2002.454732185741
 30
0.0
 10
634.0444420118873
 20
2007.307380133141
 30
0.0
 10
633.195061756451
 20
2012.046395232355
 30
0.0
 10
632.6343566356093
 20
2014.387494569916
 30
0.0
1001
REVIT
1002
{
1070
     3
1000
790271
1002
}
  0
LINE
  5
AE
330
87
100
AcDbEntity
  8
M-PIPE
100
AcDbLine
 10
632.6343566356093
 20
2014.387494569916
 30
0.0
 11
610.0984582507378
 21
2014.387494569915
 31
0.0
1001
REVIT
1002
{
1070
     3
1000
790271
1002
}
  0
SPLINE
  5
AF
330
87
100
AcDbEntity
  8
M-PIPE
100
AcDbSpline
210
0.0
220
0.0
230
1.0
 70
     8
 71
     3
 72
     9
 73
     5
 74
     0
 42
0.000000001
 43
0.0000000001
 40
0.0
 40
0.0
 40
0.0
 40
0.0
 40
0.5
 40
1.0
 40
1.0
 40
1.0
 40
1.0
 10
610.0984582507258
 20
2035.772585609834
 30
0.0
 10
609.5377531298813
 20
2034.602035941054
 30
0.0
 10
608.6883728744451
 20
2032.232528391448
 30
0.0
 10
608.3830525915149
 20
2029.806204417748
 30
0.0
 10
608.3664074431761
 20
2028.578838324874
 30
0.0
1001
REVIT
1002
{
1070
     3
1000
790271
1002
}
  0
SPLINE
  5
B0
330
87
100
AcDbEntity
  8
M-PIPE
100
AcDbSpline
210
0.0
220
0.0
230
1.0
 70
     8
 71
     3
 72
     9
 73
     5
 74
     0
 42
0.000000001
 43
0.0000000001
 40
0.0
 40
0.0
 40
0.0
 40
0.0
 40
0.5
 40
1.0
 40
1.0
 40
1.0
 40
1.0
 10
608.3664074431761
 20
2028.578838324874
 30
0.0
 10
608.3830525915151
 20
2027.351472231997
 30
0.0
 10
608.688372874447
 20
2024.92514825829
 30
0.0
 10
609.5377531298876
 20
2022.555640708678
 30
0.0
 10
610.098458250735
 20
2021.385091039896
 30
0.0
1001
REVIT
1002
{
1070
     3
1000
790271
1002
}
  0
LINE
  5
B1
330
87
100
AcDbEntity
  8
M-PIPE
100
AcDbLine
 10
610.098458250735
 20
2021.385091039896
 30
0.0
 11
632.6343566356118
 21
2021.385091039896
 31
0.0
1001
REVIT
1002
{
1070
     3
1000
790271
1002
}
  0
SPLINE
  5
B2
330
87
100
AcDbEntity
  8
M-PIPE
100
AcDbSpline
210
0.0
220
0.0
230
1.0
 70
     8
 71
     3
 72
     9
 73
     5
 74
     0
 42
0.000000001
 43
0.0000000001
 40
0.0
 40
0.0
 40
0.0
 40
0.0
 40
0.5
 40
1.0
 40
1.0
 40
1.0
 40
1.0
 10
632.6343566356118
 20
2021.385091039896
 30
0.0
 10
633.1950617564581
 20
2022.555640708678
 30
0.0
 10
634.0444420118987
 20
2024.92514825829
 30
0.0
 10
634.3497622948343
 20
2027.351472231997
 30
0.0
 10
634.366407443176
 20
2028.578838324873
 30
0.0
1001
REVIT
1002
{
1070
     3
1000
790271
1002
}
  0
SPLINE
  5
B3
330
87
100
AcDbEntity
  8
M-PIPE
100
AcDbSpline
210
0.0
220
0.0
230
1.0
 70
     8
 71
     3
 72
     9
 73
     5
 74
     0
 42
0.000000001
 43
0.0000000001
 40
0.0
 40
0.0
 40
0.0
 40
0.0
 40
0.5
 40
1.0
 40
1.0
 40
1.0
 40
1.0
 10
634.366407443176
 20
2028.578838324873
 30
0.0
 10
634.3497622948344
 20
2029.806204417747
 30
0.0
 10
634.0444420119004
 20
2032.232528391447
 30
0.0
 10
633.195061756464
 20
2034.602035941054
 30
0.0
 10
632.6343566356201
 20
2035.772585609834
 30
0.0
1001
REVIT
1002
{
1070
     3
1000
790271
1002
}
  0
LINE
  5
B4
330
87
100
AcDbEntity
  8
M-PIPE
100
AcDbLine
 10
632.6343566356201
 20
2035.772585609834
 30
0.0
 11
610.0984582507258
 21
2035.772585609834
 31
0.0
1001
REVIT
1002
{
1070
     3
1000
790271
1002
}
  0
LINE
  5
B5
330
87
100
AcDbEntity
  8
M-PIPE
100
AcDbLine
 10
610.0984582507427
 20
1963.999999999982
 30
0.0
 11
610.0984582507428
 21
1964.227414390128
 31
0.0
1001
REVIT
1002
{
1070
     3
1000
790271
1002
}
  0
LINE
  5
B6
330
87
100
AcDbEntity
  8
M-PIPE
100
AcDbLine
 10
610.0984582507442
 20
1978.614908960063
 30
0.0
 11
610.098458250744
 21
1985.61250543004
 31
0.0
1001
REVIT
1002
{
1070
     3
1000
790271
1002
}
  0
LINE
  5
B7
330
87
100
AcDbEntity
  8
M-PIPE
100
AcDbLine
 10
610.0984582507372
 20
2014.387494569915
 30
0.0
 11
610.098458250737
 21
2021.385091039897
 31
0.0
1001
REVIT
1002
{
1070
     3
1000
790271
1002
}
  0
LINE
  5
B8
330
87
100
AcDbEntity
  8
M-PIPE
100
AcDbLine
 10
610.0984582507281
 20
2035.772585609838
 30
0.0
 11
610.0984582507281
 21
2035.999999999984
 31
0.0
1001
REVIT
1002
{
1070
     3
1000
790271
1002
}
  0
LINE
  5
B9
330
87
100
AcDbEntity
  8
M-PIPE
100
AcDbLine
 10
632.6343566356188
 20
2035.999999999982
 30
0.0
 11
632.6343566356189
 21
2035.772585609836
 31
0.0
1001
REVIT
1002
{
1070
     3
1000
790271
1002
}
  0
LINE
  5
BA
330
87
100
AcDbEntity
  8
M-PIPE
100
AcDbLine
 10
632.6343566356118
 20
2021.385091039896
 30
0.0
 11
632.6343566356121
 21
2014.387494569914
 31
0.0
1001
REVIT
1002
{
1070
     3
1000
790271
1002
}
  0
LINE
  5
BB
330
87
100
AcDbEntity
  8
M-PIPE
100
AcDbLine
 10
632.6343566356046
 20
1985.612505430041
 30
0.0
 11
632.6343566356046
 21
1978.614908960064
 31
0.0
1001
REVIT
1002
{
1070
     3
1000
790271
1002
}
  0
LINE
  5
BC
330
87
100
AcDbEntity
  8
M-PIPE
100
AcDbLine
 10
632.6343566356046
 20
1964.227414390127
 30
0.0
 11
632.6343566356046
 21
1963.999999999981
 31
0.0
1001
REVIT
1002
{
1070
     3
1000
790271
1002
}
  0
LINE
  5
BD
330
87
100
AcDbEntity
  8
M-PIPE
100
AcDbLine
 10
801.8664074431898
 20
2062.999999999993
 30
0.0
 11
889.8664074431898
 21
2062.999999999993
 31
0.0
1001
REVIT
1002
{
1070
     3
1000
856288
1002
}
  0
LINE
  5
BE
330
87
100
AcDbEntity
  8
M-PIPE
100
AcDbLine
 10
889.8664074431898
 20
2062.999999999993
 30
0.0
 11
889.8664074431898
 21
2065.999999999993
 31
0.0
1001
REVIT
1002
{
1070
     3
1000
856288
1002
}
  0
LINE
  5
BF
330
87
100
AcDbEntity
  8
M-PIPE
100
AcDbLine
 10
889.8664074431898
 20
2065.999999999993
 30
0.0
 11
801.8664074431898
 21
2065.999999999993
 31
0.0
1001
REVIT
1002
{
1070
     3
1000
856288
1002
}
  0
LINE
  5
C0
330
87
100
AcDbEntity
  8
M-PIPE
100
AcDbLine
 10
801.8664074431898
 20
2065.999999999993
 30
0.0
 11
801.8664074431898
 21
2062.999999999993
 31
0.0
1001
REVIT
1002
{
1070
     3
1000
856288
1002
}
  0
LINE
  5
C1
330
87
100
AcDbEntity
  8
M-PIPE
100
AcDbLine
 10
792.0800665649604
 20
2065.999999999993
 30
0.0
 11
782.8424622579473
 21
2050.00000000003
 31
0.0
1001
REVIT
1002
{
1070
     3
1000
856288
1002
}
  0
LINE
  5
C2
330
87
100
AcDbEntity
  8
M-PIPE
100
AcDbLine
 10
782.8424622579473
 20
2050.00000000003
 30
0.0
 11
753.8664074431896
 21
2050.00000000003
 31
0.0
1001
REVIT
1002
{
1070
     3
1000
856288
1002
}
  0
LINE
  5
C3
330
87
100
AcDbEntity
  8
M-PIPE
100
AcDbLine
 10
753.8664074431896
 20
2050.00000000003
 30
0.0
 11
753.8664074431896
 21
2047.00000000003
 31
0.0
1001
REVIT
1002
{
1070
     3
1000
856288
1002
}
  0
LINE
  5
C4
330
87
100
AcDbEntity
  8
M-PIPE
100
AcDbLine
 10
753.8664074431896
 20
2047.00000000003
 30
0.0
 11
784.4041634095912
 21
2047.00000000001
 31
0.0
1001
REVIT
1002
{
1070
     3
1000
856288
1002
}
  0
LINE
  5
C5
330
87
100
AcDbEntity
  8
M-PIPE
100
AcDbLine
 10
784.4041634095912
 20
2047.00000000001
 30
0.0
 11
793.6417677166156
 21
2062.999999999993
 31
0.0
1001
REVIT
1002
{
1070
     3
1000
856288
1002
}
  0
LINE
  5
C6
330
87
100
AcDbEntity
  8
M-PIPE
100
AcDbLine
 10
793.6417677166156
 20
2062.999999999993
 30
0.0
 11
801.8664074431898
 21
2062.999999999993
 31
0.0
1001
REVIT
1002
{
1070
     3
1000
856288
1002
}
  0
LINE
  5
C7
330
87
100
AcDbEntity
  8
M-PIPE
100
AcDbLine
 10
801.8664074431898
 20
2062.999999999993
 30
0.0
 11
801.8664074431898
 21
2065.999999999993
 31
0.0
1001
REVIT
1002
{
1070
     3
1000
856288
1002
}
  0
LINE
  5
C8
330
87
100
AcDbEntity
  8
M-PIPE
100
AcDbLine
 10
801.8664074431898
 20
2065.999999999993
 30
0.0
 11
792.0800665649604
 21
2065.999999999993
 31
0.0
1001
REVIT
1002
{
1070
     3
1000
856288
1002
}
  0
LINE
  5
C9
330
87
100
AcDbEntity
  8
P-SANR-FIXT
100
AcDbLine
 10
775.3664074431873
 20
2040.999999999996
 30
0.0
 11
775.3664074431873
 21
2047.000000000017
 31
0.0
  0
LINE
  5
CA
330
87
100
AcDbEntity
  8
P-SANR-FIXT
100
AcDbLine
 10
764.3664074431874
 20
2047.000000000024
 30
0.0
 11
764.3664074431874
 21
2040.999999999996
 31
0.0
  0
LINE
  5
CB
330
87
100
AcDbEntity
  8
P-SANR-FIXT
100
AcDbLine
 10
677.8664074431885
 20
2038.499999999995
 30
0.0
 11
685.8664074431884
 21
2038.499999999995
 31
0.0
  0
LINE
  5
CC
330
87
100
AcDbEntity
  8
P-SANR-FIXT
100
AcDbLine
 10
669.8664074431884
 20
2038.499999999995
 30
0.0
 11
677.8664074431885
 21
2038.499999999995
 31
0.0
  0
LINE
  5
CD
330
87
100
AcDbEntity
  8
P-SANR-FIXT
100
AcDbLine
 10
677.8664074431885
 20
2038.499999999995
 30
0.0
 11
677.8664074431885
 21
2032.999999999995
 31
0.0
  0
LINE
  5
CE
330
87
100
AcDbEntity
  8
P-SANR-FIXT
100
AcDbLine
 10
685.8664074431884
 20
2032.999999999995
 30
0.0
 11
685.8664074431884
 21
2038.499999999995
 31
0.0
  0
LINE
  5
CF
330
87
100
AcDbEntity
  8
P-SANR-FIXT
100
AcDbLine
 10
669.8664074431884
 20
2032.999999999995
 30
0.0
 11
669.8664074431884
 21
2038.499999999995
 31
0.0
  0
LINE
  5
D0
330
87
100
AcDbEntity
  8
P-SANR-FIXT
100
AcDbLine
 10
737.8664074431866
 20
2032.999999999995
 30
0.0
 11
745.8664074431866
 21
2032.999999999995
 31
0.0
  0
LINE
  5
D1
330
87
100
AcDbEntity
  8
P-SANR-FIXT
100
AcDbLine
 10
729.8664074431866
 20
2032.999999999995
 30
0.0
 11
737.8664074431866
 21
2032.999999999995
 31
0.0
  0
LINE
  5
D2
330
87
100
AcDbEntity
  8
P-SANR-FIXT
100
AcDbLine
 10
737.8664074431866
 20
2032.999999999995
 30
0.0
 11
737.8664074431866
 21
2027.499999999995
 31
0.0
  0
LINE
  5
D3
330
87
100
AcDbEntity
  8
P-SANR-FIXT
100
AcDbLine
 10
745.8664074431866
 20
2027.499999999995
 30
0.0
 11
745.8664074431866
 21
2032.999999999995
 31
0.0
  0
LINE
  5
D4
330
87
100
AcDbEntity
  8
P-SANR-FIXT
100
AcDbLine
 10
729.8664074431866
 20
2027.499999999995
 30
0.0
 11
729.8664074431866
 21
2032.999999999995
 31
0.0
  0
LWPOLYLINE
  5
D5
330
87
100
AcDbEntity
  8
P-SANR-FIXT
100
AcDbPolyline
 90
       11
 70
   128
 43
0.0
 10
735.7494728292063
 20
2001.06994071538
 10
735.1699847691087
 20
2001.649428775477
 10
734.5902134279445
 20
2002.229200116642
 10
734.0110863161817
 20
2002.808327228404
 10
733.4335299136585
 20
2003.385883630928
 10
732.8584681874136
 20
2003.960945357173
 10
732.2868211135356
 20
2004.53259243105
 10
731.7195032053979
 20
2005.099910339188
 10
731.1574220506321
 20
2005.661991493953
 10
730.6014768591816
 20
2006.217936685404
 10
730.5833420571723
 20
2006.236071487414
  0
LWPOLYLINE
  5
D6
330
87
100
AcDbEntity
  8
P-SANR-FIXT
100
AcDbPolyline
 90
       28
 70
   128
 43
0.0
 10
713.4609719706554
 20
2016.355644765816
 10
713.5703653646136
 20
2016.460747661892
 10
713.7200024536185
 20
2016.593425499323
 10
713.8748255472924
 20
2016.720013321076
 10
714.0345869617133
 20
2016.840308613641
 10
714.1990311126983
 20
2016.954118930212
 10
714.3678949246858
 20
2017.061262198559
 10
714.5409082515982
 20
2017.161567012311
 10
714.7177943090208
 20
2017.254872905161
 10
714.898270116995
 20
2017.341030607587
 10
715.0820469527276
 20
2017.419902285642
 10
715.2688308124851
 20
2017.491361761467
 10
715.4583228819367
 20
2017.555294715145
 10
715.6502200141946
 20
2017.611598867588
 10
715.8442152147827
 20
2017.660184144163
 10
716.0399981327635
 20
2017.700972818793
 10
716.237255557233
 20
2017.733899638297
 10
716.4356719183916
 20
2017.758911926791
 10
716.6349297923881
 20
2017.775969669947
 10
716.8347104091296
 20
2017.785045579016
 10
717.0346941622475
 20
2017.786125134478
 10
717.2345611203975
 20
2017.779206609276
 10
717.4339915390825
 20
2017.764301071574
 10
717.6326663721758
 20
2017.741432367052
 10
717.8302677823258
 20
2017.710637080759
 10
718.0264796494292
 20
2017.671964478585
 10
718.2209880763547
 20
2017.625476428443
 10
718.3272062306818
 20
2017.596581110368
  0
LINE
  5
D7
330
87
100
AcDbEntity
  8
P-SANR-FIXT
100
AcDbLine
 10
720.8233536043779
 20
1951.59450032067
 30
0.0
 11
748.7288532837034
 21
1979.499999999995
 31
0.0
  0
LINE
  5
D8
330
87
100
AcDbEntity
  8
P-SANR-FIXT
100
AcDbLine
 10
713.4261536677001
 20
2016.32219206502
 30
0.0
 11
713.1039616026749
 21
2015.999999999996
 31
0.0
  0
LINE
  5
D9
330
87
100
AcDbEntity
  8
P-SANR-FIXT
100
AcDbLine
 10
649.85499410099
 20
1958.054333357209
 30
0.0
 11
641.6273941114841
 21
1949.826733367703
 31
0.0
  0
LINE
  5
DA
330
87
100
AcDbEntity
  8
P-SANR-FIXT
100
AcDbLine
 10
682.9931408108977
 20
1908.46098666829
 30
0.0
 11
720.8233536043779
 21
1946.29119946177
 31
0.0
  0
LINE
  5
DB
330
87
100
AcDbEntity
  8
P-SANR-FIXT
100
AcDbLine
 10
720.8233536043779
 20
1946.29119946177
 30
0.0
 11
720.8233536043779
 21
1951.59450032067
 31
0.0
  0
LINE
  5
DC
330
87
100
AcDbEntity
  8
P-SANR-FIXT
100
AcDbLine
 10
641.6273941114842
 20
1949.826733367703
 30
0.0
 11
641.6273941114842
 21
1946.644752852364
 31
0.0
  0
LINE
  5
DD
330
87
100
AcDbEntity
  8
P-SANR-FIXT
100
AcDbLine
 10
679.8111602955579
 20
1908.46098666829
 30
0.0
 11
682.9931408108974
 21
1908.46098666829
 31
0.0
  0
LINE
  5
DE
330
87
100
AcDbEntity
  8
P-SANR-FIXT
100
AcDbLine
 10
641.6273941114842
 20
1946.644752852364
 30
0.0
 11
633.1664074431894
 21
1938.183766184069
 31
0.0
  0
LINE
  5
DF
330
87
100
AcDbEntity
  8
P-SANR-FIXT
100
AcDbLine
 10
671.3501736272631
 20
1899.999999999995
 30
0.0
 11
679.8111602955579
 21
1908.46098666829
 31
0.0
  0
LWPOLYLINE
  5
E0
330
87
100
AcDbEntity
  8
P-SANR-FIXT
100
AcDbPolyline
 90
       30
 70
   128
 43
0.0
 10
718.3272062306818
 20
2017.596581110368
 10
718.4146779901683
 20
2017.77642370333
 10
718.5092715671278
 20
2017.952624503978
 10
718.6108356320164
 20
2018.124901628619
 10
718.719207703996
 20
2018.292979470603
 10
718.8342144108696
 20
2018.456589141238
 10
718.9556717664395
 20
2018.615468899952
 10
719.0833854648462
 20
2018.769364573024
 10
719.2171511914169
 20
2018.918029960206
 10
719.356754949524
 20
2019.061227228593
 10
719.5019734029348
 20
2019.198727293103
 10
719.6525742331025
 20
2019.330310182963
 10
719.8083165108251
 20
2019.455765393619
 10
719.9689510816816
 20
2019.574892223498
 10
720.1342209646256
 20
2019.687500095082
 10
720.3038617630998
 20
2019.793408859801
 10
720.4776020880147
 20
2019.892449086222
 10
720.6551639919134
 20
2019.984462331111
 10
720.8362634136274
 20
2020.069301392904
 10
721.0206106327143
 20
2020.146830547201
 10
721.207910732949
 20
2020.216925763893
 10
721.3978640741264
 20
2020.279474905587
 10
721.5901667714217
 20
2020.334377906999
 10
721.7845111815417
 20
2020.381546935039
 10
721.9805863948882
 20
2020.420906529324
 10
722.1780787329468
 20
2020.452393722899
 10
722.3766722501061
 20
2020.475958142972
 10
722.5760492391031
 20
2020.491562091498
 10
722.7758907392868
 20
2020.499180605486
 10
722.8664074431894
 20
2020.499999999996
  0
LINE
  5
E1
330
87
100
AcDbEntity
  8
P-SANR-FIXT
100
AcDbLine
 10
748.7288532837034
 20
1979.499999999995
 30
0.0
 11
751.2786942029181
 21
1979.499999999995
 31
0.0
  0
LINE
  5
E2
330
87
100
AcDbEntity
  8
P-SANR-FIXT
100
AcDbLine
 10
751.2786942029181
 20
2020.499999999996
 30
0.0
 11
747.3664074431892
 21
2020.499999999996
 31
0.0
  0
LINE
  5
E3
330
87
100
AcDbEntity
  8
P-SANR-FIXT
100
AcDbLine
 10
728.3664074431893
 20
2020.499999999996
 30
0.0
 11
722.8664074431894
 21
2020.499999999996
 31
0.0
  0
LINE
  5
E4
330
87
100
AcDbEntity
  8
P-SANR-FIXT
100
AcDbLine
 10
751.2786942029181
 20
1979.499999999995
 30
0.0
 11
752.8250276000627
 21
1976.8216719907
 31
0.0
  0
LINE
  5
E5
330
87
100
AcDbEntity
  8
P-SANR-FIXT
100
AcDbLine
 10
752.8312360805464
 20
1976.810918587064
 30
0.0
 11
752.8664074431893
 21
1976.749999999995
 31
0.0
  0
LINE
  5
E6
330
87
100
AcDbEntity
  8
P-SANR-FIXT
100
AcDbLine
 10
752.8664074431893
 20
2023.249999999995
 30
0.0
 11
752.8365310517998
 21
2023.198252572162
 31
0.0
  0
LINE
  5
E7
330
87
100
AcDbEntity
  8
P-SANR-FIXT
100
AcDbLine
 10
752.8250276000627
 20
2023.178328009291
 30
0.0
 11
751.2786942029181
 21
2020.499999999996
 31
0.0
  0
LINE
  5
E8
330
87
100
AcDbEntity
  8
P-SANR-FIXT
100
AcDbLine
 10
752.8664074431893
 20
1976.749999999995
 30
0.0
 11
785.0126687991335
 21
1976.749999999995
 31
0.0
  0
LINE
  5
E9
330
87
100
AcDbEntity
  8
P-SANR-FIXT
100
AcDbLine
 10
785.0126687991335
 20
2023.249999999995
 30
0.0
 11
782.3664074431892
 21
2023.249999999995
 31
0.0
  0
LINE
  5
EA
330
87
100
AcDbEntity
  8
P-SANR-FIXT
100
AcDbLine
 10
757.3664074431896
 20
2023.249999999995
 30
0.0
 11
752.8664074431893
 21
2023.249999999995
 31
0.0
  0
LINE
  5
EB
330
87
100
AcDbEntity
  8
P-SANR-FIXT
100
AcDbLine
 10
785.0126687991335
 20
1976.749999999995
 30
0.0
 11
787.4174635427168
 21
1972.584773322335
 31
0.0
  0
LINE
  5
EC
330
87
100
AcDbEntity
  8
P-SANR-FIXT
100
AcDbLine
 10
787.4281526534866
 20
1972.566259239393
 30
0.0
 11
787.4664074431893
 21
1972.499999999995
 31
0.0
  0
LINE
  5
ED
330
87
100
AcDbEntity
  8
P-SANR-FIXT
100
AcDbLine
 10
787.4664074431893
 20
2027.499999999996
 30
0.0
 11
787.4281526534866
 21
2027.433740760598
 31
0.0
  0
LINE
  5
EE
330
87
100
AcDbEntity
  8
P-SANR-FIXT
100
AcDbLine
 10
787.4174635427168
 20
2027.415226677657
 30
0.0
 11
785.0126687991335
 21
2023.249999999995
 31
0.0
  0
LINE
  5
EF
330
87
100
AcDbEntity
  8
P-SANR-FIXT
100
AcDbLine
 10
787.4664074431893
 20
1972.499999999995
 30
0.0
 11
789.8664074431893
 21
1972.499999999995
 31
0.0
  0
LINE
  5
F0
330
87
100
AcDbEntity
  8
P-SANR-FIXT
100
AcDbLine
 10
789.8664074431893
 20
2027.499999999996
 30
0.0
 11
787.4664074431893
 21
2027.499999999996
 31
0.0
  0
LINE
  5
F1
330
87
100
AcDbEntity
  8
P-SANR-FIXT
100
AcDbLine
 10
634.3664074431778
 20
1973.999999999995
 30
0.0
 11
649.8664074431893
 21
1973.999999999995
 31
0.0
  0
LINE
  5
F2
330
87
100
AcDbEntity
  8
P-SANR-FIXT
100
AcDbLine
 10
693.8664074431893
 20
2025.999999999996
 30
0.0
 11
687.3664074431892
 21
2025.999999999996
 31
0.0
  0
LINE
  5
F3
330
87
100
AcDbEntity
  8
P-SANR-FIXT
100
AcDbLine
 10
668.3664074431893
 20
2025.999999999996
 30
0.0
 11
634.3664074431772
 21
2025.999999999996
 31
0.0
  0
LWPOLYLINE
  5
F4
330
87
100
AcDbEntity
  8
P-SANR-FIXT
100
AcDbPolyline
 90
       41
 70
   128
 43
0.0
 10
699.8664074431893
 20
1999.999999999995
 10
699.8664074431893
 20
2000.799786683728
 10
699.8664074431893
 20
2001.598293879379
 10
699.8664074431893
 20
2002.394244145774
 10
699.8664074431893
 20
2003.186364132281
 10
699.8664074431893
 20
2003.973386615897
 10
699.8664074431893
 20
2004.754052528538
 10
699.8664074431893
 20
2005.527112971278
 10
699.8664074431893
 20
2006.291331212318
 10
699.8664074431893
 20
2007.045484665498
 10
699.8664074431893
 20
2007.788366846169
 10
699.8664074431893
 20
2008.518789301316
 10
699.8664074431893
 20
2009.235583510825
 10
699.8664074431893
 20
2009.93760275687
 10
699.8664074431893
 20
2010.623723958413
 10
699.8664074431893
 20
2011.292849467896
 10
699.8664074431893
 20
2011.943908827244
 10
699.8664074431893
 20
2012.575860480365
 10
699.8664074431893
 20
2013.187693439425
 10
699.8664074431893
 20
2013.778428902207
 10
699.8664074431893
 20
2014.347121817986
 10
699.8664074431893
 20
2014.892862399413
 10
699.8664074431893
 20
2015.414777577975
 10
699.8664074431893
 20
2015.912032400723
 10
699.8664074431893
 20
2016.383831366016
 10
699.8664074431893
 20
2016.829419696154
 10
699.8664074431893
 20
2017.248084544863
 10
699.8664074431893
 20
2017.639156137695
 10
699.8664074431893
 20
2018.002008843526
 10
699.8664074431893
 20
2018.336062175431
 10
699.8664074431893
 20
2018.640781719341
 10
699.8664074431893
 20
2018.915679988987
 10
699.8664074431893
 20
2019.160317205781
 10
699.8664074431893
 20
2019.374302002361
 10
699.8664074431893
 20
2019.557292048702
 10
699.8664074431893
 20
2019.708994599765
 10
699.8664074431893
 20
2019.829166963829
 10
699.8664074431893
 20
2019.917616890749
 10
699.8664074431893
 20
2019.974202879508
 10
699.8664074431893
 20
2019.998834404595
 10
699.8664074431893
 20
2019.999999999996
  0
LWPOLYLINE
  5
F5
330
87
100
AcDbEntity
  8
P-SANR-FIXT
100
AcDbPolyline
 90
       41
 70
   128
 43
0.0
 10
693.8664074431893
 20
2025.999999999996
 10
694.1063434483091
 20
2025.995200639962
 10
694.3458956070044
 20
2025.980810237811
 10
694.5846806869229
 20
2025.956851815119
 10
694.8223166828748
 20
2025.92336370025
 10
695.0584234279598
 20
2025.880399467043
 10
695.2926232017522
 20
2025.828027849108
 10
695.5245413345741
 20
2025.76633262986
 10
695.753806806886
 20
2025.695412508491
 10
695.9800528428399
 20
2025.615380942063
 10
696.2029174970413
 20
2025.526365964013
 10
696.4220442335854
 20
2025.428509979316
 10
696.6370824964382
 20
2025.321969536671
 10
696.8476882702518
 20
2025.206915078062
 10
697.0535246307146
 20
2025.083530666076
 10
697.2542622835596
 20
2024.952013689454
 10
697.4495800913636
 20
2024.812574547302
 10
697.6391655873002
 20
2024.665436312501
 10
697.8227154750182
 20
2024.510834374841
 10
697.9999361138526
 20
2024.349016064441
 10
698.1705439885864
 20
2024.180240256079
 10
698.3342661630144
 20
2024.004776955043
 10
698.490840716583
 20
2023.822906865187
 10
698.6400171634076
 20
2023.634920939857
 10
698.7815568529953
 20
2023.441119916431
 10
698.9152333520368
 20
2023.241813835205
 10
699.0408328066494
 20
2023.037321543393
 10
699.158154284499
 20
2022.827970185038
 10
699.2670100962484
 20
2022.614094677656
 10
699.36722609582
 20
2022.396037176434
 10
699.4586419589928
 20
2022.174146526856
 10
699.5411114398867
 20
2021.948777706629
 10
699.6145026049246
 20
2021.720291257787
 10
699.6786980438989
 20
2021.48905270991
 10
699.7335950578012
 20
2021.255431995344
 10
699.7791058231201
 20
2021.019802857397
 10
699.8151575323394
 20
2020.782542252425
 10
699.8416925104152
 20
2020.544029746782
 10
699.8586683070428
 20
2020.304646909597
 10
699.8660577645693
 20
2020.064776702346
 10
699.8664074431893
 20
2019.999999999996
  0
LWPOLYLINE
  5
F6
330
87
100
AcDbEntity
  8
P-SANR-FIXT
100
AcDbPolyline
 90
        4
 70
   128
 43
0.0
 10
699.8664074431893
 20
2019.999999999996
 10
699.8664074431893
 20
2019.984002133215
 10
699.8664074431893
 20
2019.936034126048
 10
699.8664074431893
 20
2019.856172717073
  0
LINE
  5
F7
330
87
100
AcDbEntity
  8
P-SANR-FIXT
100
AcDbLine
 10
649.8664074431893
 20
1973.999999999995
 30
0.0
 11
649.8664074431893
 21
1958.065746699409
 31
0.0
  0
LINE
  5
F8
330
87
100
AcDbEntity
  8
P-SANR-FIXT
100
AcDbLine
 10
699.8664074431893
 20
1989.071857321193
 30
0.0
 11
699.8664074431893
 21
1999.999999999995
 31
0.0
  0
LINE
  5
F9
330
87
100
AcDbEntity
  8
P-SANR-FIXT
100
AcDbLine
 10
757.3664074431895
 20
2040.999999999995
 30
0.0
 11
757.3664074431896
 21
2023.249999999995
 31
0.0
  0
LINE
  5
FA
330
87
100
AcDbEntity
  8
P-SANR-FIXT
100
AcDbLine
 10
782.3664074431892
 20
2023.249999999995
 30
0.0
 11
782.3664074431892
 21
2040.999999999996
 31
0.0
  0
LINE
  5
FB
330
87
100
AcDbEntity
  8
P-SANR-FIXT
100
AcDbLine
 10
728.3664074431893
 20
2027.499999999996
 30
0.0
 11
728.3664074431893
 21
2020.499999999996
 31
0.0
  0
LINE
  5
FC
330
87
100
AcDbEntity
  8
P-SANR-FIXT
100
AcDbLine
 10
747.3664074431892
 20
2020.499999999996
 30
0.0
 11
747.3664074431892
 21
2027.499999999996
 31
0.0
  0
LINE
  5
FD
330
87
100
AcDbEntity
  8
P-SANR-FIXT
100
AcDbLine
 10
668.3664074431893
 20
2032.999999999995
 30
0.0
 11
668.3664074431893
 21
2025.999999999996
 31
0.0
  0
LINE
  5
FE
330
87
100
AcDbEntity
  8
P-SANR-FIXT
100
AcDbLine
 10
687.3664074431892
 20
2025.999999999996
 30
0.0
 11
687.3664074431892
 21
2032.999999999995
 31
0.0
  0
LINE
  5
FF
330
87
100
AcDbEntity
  8
P-SANR-FIXT
100
AcDbLine
 10
789.8664074431896
 20
1972.999999999995
 30
0.0
 11
792.3664074431897
 21
1972.999999999995
 31
0.0
  0
LINE
  5
100
330
87
100
AcDbEntity
  8
P-SANR-FIXT
100
AcDbLine
 10
792.3664074431894
 20
2026.999999999996
 30
0.0
 11
789.8664074431893
 21
2026.999999999996
 31
0.0
  0
LINE
  5
101
330
87
100
AcDbEntity
  8
P-SANR-FIXT
100
AcDbLine
 10
642.1820189033176
 20
1929.16815472394
 30
0.0
 11
636.5251646538254
 21
1923.511300474448
 31
0.0
  0
LINE
  5
102
330
87
100
AcDbEntity
  8
P-SANR-FIXT
100
AcDbLine
 10
656.6777079176424
 20
1903.358757210631
 30
0.0
 11
662.3345621671346
 21
1909.015611460123
 31
0.0
  0
LINE
  5
103
330
87
100
AcDbEntity
  8
P-SANR-FIXT
100
AcDbLine
 10
596.3664074431625
 20
1978.000000000083
 30
0.0
 11
608.3664074431781
 21
1978.000000000083
 31
0.0
  0
LINE
  5
104
330
87
100
AcDbEntity
  8
P-SANR-FIXT
100
AcDbLine
 10
608.3664074431774
 20
2021.999999999911
 30
0.0
 11
596.3664074431625
 21
2021.999999999911
 31
0.0
  0
SPLINE
  5
105
330
87
100
AcDbEntity
  8
P-SANR-FIXT
100
AcDbSpline
210
0.0
220
0.0
230
1.0
 70
     8
 71
     3
 72
     9
 73
     5
 74
     0
 42
0.000000001
 43
0.0000000001
 40
-1.0
 40
-1.0
 40
-1.0
 40
-1.0
 40
-0.5
 40
0.0
 40
0.0
 40
0.0
 40
0.0
 10
730.5833420571713
 20
2006.236071487413
 30
0.0
 10
729.3536653158994
 20
2007.530260123281
 30
0.0
 10
726.8378328056303
 20
2009.99547409629
 30
0.0
 10
724.209042239911
 20
2012.139831652964
 30
0.0
 10
722.8664074431885
 20
2013.119319275453
 30
0.0
  0
SPLINE
  5
106
330
87
100
AcDbEntity
  8
P-SANR-FIXT
100
AcDbSpline
210
0.0
220
0.0
230
1.0
 70
     8
 71
     3
 72
    24
 73
    20
 74
     0
 42
0.000000001
 43
0.0000000001
 40
0.0
 40
0.0
 40
0.0
 40
0.0
 40
0.125
 40
0.1875
 40
0.21875
 40
0.25
 40
0.28125
 40
0.3125
 40
0.375
 40
0.4375
 40
0.46875
 40
0.5
 40
0.53125
 40
0.5625
 40
0.625
 40
0.6875
 40
0.75
 40
0.875
 40
1.0
 40
1.0
 40
1.0
 40
1.0
 10
722.8664074431885
 20
2013.119319275453
 30
0.0
 10
722.3466956870058
 20
2013.487792661202
 30
0.0
 10
721.6194231870929
 20
2014.004697281514
 30
0.0
 10
720.8981915963635
 20
2014.555831407497
 30
0.0
 10
720.5264469828864
 20
2014.856197509933
 30
0.0
 10
720.2666911664684
 20
2015.07419903331
 30
0.0
 10
720.0345458062611
 20
2015.2845509305
 30
0.0
 10
719.767214343281
 20
2015.554158225434
 30
0.0
 10
719.497298104248
 20
2015.869631413332
 30
0.0
 10
719.2845042327885
 20
2016.153471819228
 30
0.0
 10
719.130673267927
 20
2016.361849226848
 30
0.0
 10
719.0158974347407
 20
2016.509744175325
 30
0.0
 10
718.9081952204474
 20
2016.648881010658
 30
0.0
 10
718.7870887290285
 20
2016.820663556
 30
0.0
 10
718.6663461006055
 20
2017.009879121613
 30
0.0
 10
718.5593638603196
 20
2017.196123342059
 30
0.0
 10
718.4389661156915
 20
2017.395947097125
 30
0.0
 10
718.3333202603022
 20
2017.559797692499
 30
0.0
 10
718.3191581395341
 20
2017.598865932541
 30
0.0
 10
718.327206230681
 20
2017.596581110367
 30
0.0
  0
SPLINE
  5
107
330
87
100
AcDbEntity
  8
P-SANR-FIXT
100
AcDbSpline
210
0.0
220
0.0
230
1.0
 70
     8
 71
     3
 72
    21
 73
    17
 74
     0
 42
0.000000001
 43
0.0000000001
 40
-1.0
 40
-1.0
 40
-1.0
 40
-1.0
 40
-0.8928571428571427
 40
-0.8392857142857142
 40
-0.7857142857142857
 40
-0.7321428571428572
 40
-0.6785714285714287
 40
-0.5714285714285714
 40
-0.5
 40
-0.4285714285714286
 40
-0.3571428571428571
 40
-0.2857142857142857
 40
-0.25
 40
-0.2142857142857143
 40
-0.1428571428571428
 40
0.0
 40
0.0
 40
0.0
 40
0.0
 10
748.5235417112829
 20
1981.224804021436
 30
0.0
 10
748.4943849568496
 20
1981.639419921144
 30
0.0
 10
748.3803891901279
 20
1982.364608828575
 30
0.0
 10
748.085563951179
 20
1983.510888292951
 30
0.0
 10
747.8007254925943
 20
1984.459852954327
 30
0.0
 10
747.4402834976516
 20
1985.48147476176
 30
0.0
 10
746.8405132893796
 20
1986.916212761465
 30
0.0
 10
746.0202066103
 20
1988.584947728928
 30
0.0
 10
744.9189605174615
 20
1990.423532220437
 30
0.0
 10
743.8527210617658
 20
1992.017527340717
 30
0.0
 10
742.6646069348358
 20
1993.591761517778
 30
0.0
 10
741.5947801703477
 20
1994.888316068723
 30
0.0
 10
740.7089903378318
 20
1995.912198346731
 30
0.0
 10
739.7881724804276
 20
1996.920721697061
 30
0.0
 10
738.1447565053122
 20
1998.664597843915
 30
0.0
 10
736.7213740538885
 20
2000.126761596259
 30
0.0
 10
735.7494728292055
 20
2001.069940715379
 30
0.0
  0
SPLINE
  5
108
330
87
100
AcDbEntity
  8
P-SANR-FIXT
100
AcDbSpline
210
0.0
220
0.0
230
1.0
 70
     8
 71
     3
 72
     9
 73
     5
 74
     0
 42
0.000000001
 43
0.0000000001
 40
0.0
 40
0.0
 40
0.0
 40
0.0
 40
0.5
 40
1.0
 40
1.0
 40
1.0
 40
1.0
 10
748.7288532837026
 20
1979.499999999995
 30
0.0
 10
748.7285158041022
 20
1979.499662520394
 30
0.0
 10
748.6861743799443
 20
1979.794577726855
 30
0.0
 10
748.582935855734
 20
1980.658237434777
 30
0.0
 10
748.5235417112829
 20
1981.224804021436
 30
0.0
  0
LINE
  5
109
330
87
100
AcDbEntity
  8
P-SANR-FIXT
100
AcDbLine
 10
713.2683762539033
 20
2015.999999999995
 30
0.0
 11
699.8664074431886
 21
2002.59803118928
 31
0.0
  0
SPLINE
  5
10A
330
87
100
AcDbEntity
  8
P-SANR-FIXT
100
AcDbSpline
210
0.0
220
0.0
230
1.0
 70
     8
 71
     3
 72
     9
 73
     5
 74
     0
 42
0.000000001
 43
0.0000000001
 40
0.0
 40
0.0
 40
0.0
 40
0.0
 40
0.5
 40
1.0
 40
1.0
 40
1.0
 40
1.0
 10
699.8664074431886
 20
1989.071857321192
 30
0.0
 10
699.6955366601268
 20
1986.792644216176
 30
0.0
 10
699.250036963035
 20
1982.034658218634
 30
0.0
 10
698.3890375377898
 20
1977.085536112289
 30
0.0
 10
697.8214616144654
 20
1974.596392310581
 30
0.0
  0
LINE
  5
10B
330
87
100
AcDbEntity
  8
P-SANR-FIXT
100
AcDbLine
 10
699.8664074431886
 20
2002.579144059777
 30
0.0
 11
699.885294572692
 21
2002.59803118928
 31
0.0
  0
LINE
  5
10C
330
87
100
AcDbEntity
  8
P-SANR-FIXT
100
AcDbLine
 10
720.8233536043771
 20
1946.29119946177
 30
0.0
 11
690.6651834255463
 21
1976.449369640601
 31
0.0
  0
LINE
  5
10D
330
87
100
AcDbEntity
  8
P-SANR-FIXT
100
AcDbLine
 10
690.6651834255463
 20
1976.4493696406
 30
0.0
 11
675.8664074431885
 21
1961.650593658242
 31
0.0
  0
SPLINE
  5
10E
330
87
100
AcDbEntity
  8
P-SANR-FIXT
100
AcDbSpline
210
0.0
220
0.0
230
1.0
 70
     8
 71
     3
 72
    28
 73
    24
 74
     0
 42
0.000000001
 43
0.0000000001
 40
0.0
 40
0.0
 40
0.0
 40
0.0
 40
0.0714285714285714
 40
0.1071428571428571
 40
0.1428571428571428
 40
0.2142857142857143
 40
0.25
 40
0.2857142857142857
 40
0.3035714285714286
 40
0.3214285714285714
 40
0.3571428571428571
 40
0.3928571428571428
 40
0.4107142857142857
 40
0.4285714285714286
 40
0.4464285714285714
 40
0.4642857142857144
 40
0.5
 40
0.5357142857142857
 40
0.5714285714285714
 40
0.6071428571428572
 40
0.6428571428571428
 40
0.7142857142857144
 40
1.0
 40
1.0
 40
1.0
 40
1.0
 10
675.8664074431884
 20
1961.650593658242
 30
0.0
 10
675.1356949419463
 20
1960.883733348201
 30
0.0
 10
673.9883256581126
 20
1959.857146290238
 30
0.0
 10
672.3527209215039
 20
1958.733989111942
 30
0.0
 10
670.6624840923868
 20
1957.771919611854
 30
0.0
 10
668.8121340027077
 20
1957.050299399987
 30
0.0
 10
666.9179126813034
 20
1956.551456425454
 30
0.0
 10
665.7623250357763
 20
1956.324259286545
 30
0.0
 10
664.8595153332617
 20
1956.200469824701
 30
0.0
 10
663.9558720956239
 20
1956.121046739806
 30
0.0
 10
662.8397660059021
 20
1956.087423525719
 30
0.0
 10
661.7553584678583
 20
1956.111458763473
 30
0.0
 10
660.9152851245174
 20
1956.148696252409
 30
0.0
 10
660.3012344759759
 20
1956.179309889256
 30
0.0
 10
659.7024057829234
 20
1956.218358438205
 30
0.0
 10
658.9219386564204
 20
1956.29093449571
 30
0.0
 10
657.9830349133933
 20
1956.407301797514
 30
0.0
 10
656.9185390758385
 20
1956.570971493027
 30
0.0
 10
655.918405839649
 20
1956.734846735104
 30
0.0
 10
654.9843995466704
 20
1956.899281550898
 30
0.0
 10
653.8337775610669
 20
1957.130689365315
 30
0.0
 10
651.0711592551295
 20
1957.73724046732
 30
0.0
 10
649.8667492276979
 20
1958.066088483917
 30
0.0
 10
649.8664074431887
 20
1958.065746699408
 30
0.0
  0
LINE
  5
10F
330
87
100
AcDbEntity
  8
P-SANR-FIXT
100
AcDbLine
 10
697.8214616144655
 20
1974.596392310581
 30
0.0
 11
720.8233536043771
 21
1951.594500320669
 31
0.0
  0
SPLINE
  5
110
330
87
100
AcDbEntity
  8
P-SANR-FIXT
100
AcDbSpline
210
0.0
220
0.0
230
1.0
 70
     8
 71
     3
 72
    13
 73
     9
 74
     0
 42
0.000000001
 43
0.0000000001
 40
-1.0
 40
-1.0
 40
-1.0
 40
-1.0
 40
-0.8333333333333332
 40
-0.75
 40
-0.6666666666666666
 40
-0.5
 40
-0.3333333333333333
 40
0.0
 40
0.0
 40
0.0
 40
0.0
 10
697.8214616144655
 20
1974.596392310581
 30
0.0
 10
697.6374759374614
 20
1974.530633415243
 30
0.0
 10
697.3468779110759
 20
1974.456854961546
 30
0.0
 10
696.9340968391825
 20
1974.408864806209
 30
0.0
 10
696.5073331369556
 20
1974.392698494673
 30
0.0
 10
695.9407586411014
 20
1974.445387065166
 30
0.0
 10
695.0066397053854
 20
1974.644859629772
 30
0.0
 10
694.3159397613089
 20
1974.89650308229
 30
0.0
 10
693.8664074431885
 20
1975.118433898743
 30
0.0
  0
SPLINE
  5
111
330
87
100
AcDbEntity
  8
P-SANR-FIXT
100
AcDbSpline
210
0.0
220
0.0
230
1.0
 70
     8
 71
     3
 72
     9
 73
     5
 74
     0
 42
0.000000001
 43
0.0000000001
 40
-1.0
 40
-1.0
 40
-1.0
 40
-1.0
 40
-0.5
 40
0.0
 40
0.0
 40
0.0
 40
0.0
 10
693.8664074431885
 20
1975.118433898743
 30
0.0
 10
693.341708328205
 20
1975.361457508186
 30
0.0
 10
692.2834718769478
 20
1975.826303741272
 30
0.0
 10
691.2075589831102
 20
1976.248748002758
 30
0.0
 10
690.6651834255463
 20
1976.449369640601
 30
0.0
  0
LINE
  5
112
330
87
100
AcDbEntity
  8
P-SANR-FIXT
100
AcDbLine
 10
641.6273941114836
 20
1949.826733367703
 30
0.0
 11
682.9931408108966
 21
1908.46098666829
 31
0.0
  0
LINE
  5
113
330
87
100
AcDbEntity
  8
P-SANR-FIXT
100
AcDbLine
 10
641.6273941114836
 20
1946.644752852363
 30
0.0
 11
679.8111602955572
 21
1908.46098666829
 31
0.0
  0
LINE
  5
114
330
87
100
AcDbEntity
  8
P-SANR-FIXT
100
AcDbLine
 10
789.8664074431885
 20
2027.499999999995
 30
0.0
 11
789.8664074431885
 21
1972.499999999995
 31
0.0
  0
SPLINE
  5
115
330
87
100
AcDbEntity
  8
P-SANR-FIXT
100
AcDbSpline
210
0.0
220
0.0
230
1.0
 70
     8
 71
     3
 72
    25
 73
    21
 74
     0
 42
0.000000001
 43
0.0000000001
 40
0.0
 40
0.0
 40
0.0
 40
0.0
 40
0.1111111111111111
 40
0.2222222222222222
 40
0.2777777777777778
 40
0.3333333333333333
 40
0.3611111111111111
 40
0.3888888888888888
 40
0.4444444444444445
 40
0.4791666666666666
 40
0.5138888888888889
 40
0.5486111111111111
 40
0.5833333333333333
 40
0.6180555555555555
 40
0.6527777777777777
 40
0.6875
 40
0.7222222222222223
 40
0.7916666666666668
 40
0.861111111111111
 40
1.0
 40
1.0
 40
1.0
 40
1.0
 10
747.3664074431884
 20
2020.499999999995
 30
0.0
 10
747.3483187464594
 20
2020.499999999995
 30
0.0
 10
746.9693323042134
 20
2020.307622982422
 30
0.0
 10
745.5553395455455
 20
2019.706474893126
 30
0.0
 10
744.0098162660989
 20
2019.164499744523
 30
0.0
 10
742.8878596869675
 20
2018.835888471516
 30
0.0
 10
741.9227162250979
 20
2018.611109022217
 30
0.0
 10
740.8873341081781
 20
2018.405121659934
 30
0.0
 10
739.7490430029066
 20
2018.244653367676
 30
0.0
 10
738.5111368610693
 20
2018.171367009709
 30
0.0
 10
737.4387108451551
 20
2018.165310896387
 30
0.0
 10
736.3915801179672
 20
2018.215898823143
 30
0.0
 10
735.3892024725892
 20
2018.325010648623
 30
0.0
 10
734.3866768144813
 20
2018.490994195732
 30
0.0
 10
733.4356875627051
 20
2018.693076233732
 30
0.0
 10
732.5689584099286
 20
2018.914979793982
 30
0.0
 10
731.4662966687546
 20
2019.249263975564
 30
0.0
 10
730.2965613764727
 20
2019.669260353553
 30
0.0
 10
728.8294749202015
 20
2020.273713870764
 30
0.0
 10
728.3887356066316
 20
2020.499999999995
 30
0.0
 10
728.3664074431887
 20
2020.499999999995
 30
0.0
  0
LINE
  5
116
330
87
100
AcDbEntity
  8
P-SANR-FIXT
100
AcDbLine
 10
751.2786942029173
 20
1979.499999999995
 30
0.0
 11
751.2786942029173
 21
2020.499999999995
 31
0.0
  0
LINE
  5
117
330
87
100
AcDbEntity
  8
P-SANR-FIXT
100
AcDbLine
 10
752.8664074431887
 20
1976.749999999995
 30
0.0
 11
752.8664074431887
 21
2023.249999999995
 31
0.0
  0
SPLINE
  5
118
330
87
100
AcDbEntity
  8
P-SANR-FIXT
100
AcDbSpline
210
0.0
220
0.0
230
1.0
 70
     8
 71
     3
 72
    25
 73
    21
 74
     0
 42
0.000000001
 43
0.0000000001
 40
0.0
 40
0.0
 40
0.0
 40
0.0
 40
0.1111111111111111
 40
0.2222222222222222
 40
0.2777777777777778
 40
0.3333333333333333
 40
0.3611111111111111
 40
0.3888888888888888
 40
0.4444444444444445
 40
0.4791666666666666
 40
0.5138888888888889
 40
0.5486111111111111
 40
0.5833333333333333
 40
0.6180555555555555
 40
0.6527777777777777
 40
0.6875
 40
0.7222222222222223
 40
0.7916666666666668
 40
0.861111111111111
 40
1.0
 40
1.0
 40
1.0
 40
1.0
 10
782.3664074431884
 20
2023.249999999995
 30
0.0
 10
782.339358992284
 20
2023.249999999995
 30
0.0
 10
781.8375902983333
 20
2022.952297225945
 30
0.0
 10
779.9705466262996
 20
2022.027515505209
 30
0.0
 10
777.9501879895482
 20
2021.185707409943
 30
0.0
 10
776.4826503457954
 20
2020.672797179132
 30
0.0
 10
775.2153050007563
 20
2020.318108947418
 30
0.0
 10
773.8550608549103
 20
2019.989205855912
 30
0.0
 10
772.3573819079445
 20
2019.730949616322
 30
0.0
 10
770.7207661860343
 20
2019.614728752469
 30
0.0
 10
769.299692621979
 20
2019.60500904158
 30
0.0
 10
767.9140517579137
 20
2019.68541268639
 30
0.0
 10
766.5934000137093
 20
2019.859983214702
 30
0.0
 10
765.2747829824035
 20
2020.12669424925
 30
0.0
 10
764.0258867255625
 20
2020.448231888755
 30
0.0
 10
762.8886790961853
 20
2020.795975812076
 30
0.0
 10
761.4472379181691
 20
2021.317838297661
 30
0.0
 10
759.9170197840039
 20
2021.969453565368
 30
0.0
 10
757.9827090553347
 20
2022.900022611239
 30
0.0
 10
757.3999027913341
 20
2023.249999999995
 30
0.0
 10
757.3664074431885
 20
2023.249999999995
 30
0.0
  0
LINE
  5
119
330
87
100
AcDbEntity
  8
P-SANR-FIXT
100
AcDbLine
 10
785.0126687991326
 20
1976.749999999995
 30
0.0
 11
785.0126687991326
 21
2023.249999999995
 31
0.0
  0
LINE
  5
11A
330
87
100
AcDbEntity
  8
P-SANR-FIXT
100
AcDbLine
 10
787.4664074431885
 20
1972.499999999995
 30
0.0
 11
787.4664074431885
 21
2027.499999999995
 31
0.0
  0
SPLINE
  5
11B
330
87
100
AcDbEntity
  8
P-SANR-FIXT
100
AcDbSpline
210
0.0
220
0.0
230
1.0
 70
     8
 71
     3
 72
    26
 73
    22
 74
     0
 42
0.000000001
 43
0.0000000001
 40
0.0
 40
0.0
 40
0.0
 40
0.0
 40
0.0714285714285714
 40
0.1071428571428571
 40
0.1428571428571428
 40
0.1785714285714286
 40
0.2142857142857143
 40
0.25
 40
0.2857142857142857
 40
0.3214285714285714
 40
0.3571428571428571
 40
0.3928571428571428
 40
0.4285714285714286
 40
0.4642857142857144
 40
0.5
 40
0.5714285714285714
 40
0.6071428571428572
 40
0.6428571428571428
 40
0.7142857142857144
 40
0.8571428571428571
 40
1.0
 40
1.0
 40
1.0
 40
1.0
 10
649.8664074431887
 20
1973.999999999995
 30
0.0
 10
649.8893733113998
 20
1973.999999999995
 30
0.0
 10
650.0240503780863
 20
1974.125748604386
 30
0.0
 10
650.406702592604
 20
1974.521755495043
 30
0.0
 10
650.7899806225687
 20
1974.926116657153
 30
0.0
 10
651.2905576298415
 20
1975.432515929899
 30
0.0
 10
651.9039045828439
 20
1976.034561736774
 30
0.0
 10
652.6023745415612
 20
1976.722678912794
 30
0.0
 10
653.3525665490507
 20
1977.486188081414
 30
0.0
 10
654.1672136245174
 20
1978.313978464665
 30
0.0
 10
655.0637433153864
 20
1979.200248155114
 30
0.0
 10
656.0140674119097
 20
1980.138837318388
 30
0.0
 10
656.9936879548553
 20
1981.126639043543
 30
0.0
 10
658.0092617401003
 20
1982.154242819706
 30
0.0
 10
659.4326295383925
 20
1983.565512631052
 30
0.0
 10
660.9126659395585
 20
1985.041343960556
 30
0.0
 10
662.4267604827401
 20
1986.569130843247
 30
0.0
 10
663.9842526487227
 20
1988.116163269731
 30
0.0
 10
666.7594882560092
 20
1990.895544325181
 30
0.0
 10
670.8641929481502
 20
1994.986984607047
 30
0.0
 10
674.1864269594234
 20
1998.341810681732
 30
0.0
 10
675.8664074431884
 20
1999.999999999995
 30
0.0
  0
SPLINE
  5
11C
330
87
100
AcDbEntity
  8
P-SANR-FIXT
100
AcDbSpline
210
0.0
220
0.0
230
1.0
 70
     8
 71
     3
 72
    22
 73
    18
 74
     0
 42
0.000000001
 43
0.0000000001
 40
0.0
 40
0.0
 40
0.0
 40
0.0
 40
0.1111111111111111
 40
0.2222222222222222
 40
0.2777777777777778
 40
0.3333333333333333
 40
0.3888888888888888
 40
0.4444444444444445
 40
0.4791666666666666
 40
0.5138888888888889
 40
0.5486111111111111
 40
0.5833333333333333
 40
0.6527777777777777
 40
0.7222222222222223
 40
0.7916666666666668
 40
0.861111111111111
 40
1.0
 40
1.0
 40
1.0
 40
1.0
 10
687.3664074431886
 20
2025.999999999995
 30
0.0
 10
687.3508755488874
 20
2025.999999999995
 30
0.0
 10
686.9739162236664
 20
2025.850332060359
 30
0.0
 10
685.565214788679
 20
2025.380240827344
 30
0.0
 10
684.006726460058
 20
2024.96006448603
 30
0.0
 10
682.6595163251704
 20
2024.658008170987
 30
0.0
 10
681.1498599613647
 20
2024.410413141099
 30
0.0
 10
679.7374714638532
 20
2024.260826937526
 30
0.0
 10
678.5067779335925
 20
2024.205506519118
 30
0.0
 10
677.4415369097842
 20
2024.200944590252
 30
0.0
 10
676.4010015622242
 20
2024.239114659059
 30
0.0
 10
675.0640922427163
 20
2024.349009602412
 30
0.0
 10
673.4119433234118
 20
2024.586701702663
 30
0.0
 10
671.7117214392654
 20
2024.957828357733
 30
0.0
 10
670.2863614343642
 20
2025.352133447061
 30
0.0
 10
668.8257543781206
 20
2025.823478899468
 30
0.0
 10
668.3854939401538
 20
2025.999999999995
 30
0.0
 10
668.3664074431885
 20
2025.999999999995
 30
0.0
  0
LINE
  5
11D
330
87
100
AcDbEntity
  8
P-SANR-FIXT
100
AcDbLine
 10
699.8664074431886
 20
2015.999999999995
 30
0.0
 11
713.2683762539033
 21
2015.999999999995
 31
0.0
  0
LINE
  5
11E
330
87
100
AcDbEntity
  8
P-SANR-FIXT
100
AcDbLine
 10
757.3664074431885
 20
2040.999999999995
 30
0.0
 11
782.3664074431884
 21
2040.999999999995
 31
0.0
  0
LINE
  5
11F
330
87
100
AcDbEntity
  8
P-SANR-FIXT
100
AcDbLine
 10
728.3664074431887
 20
2027.499999999995
 30
0.0
 11
747.3664074431884
 21
2027.499999999995
 31
0.0
  0
LINE
  5
120
330
87
100
AcDbEntity
  8
P-SANR-FIXT
100
AcDbLine
 10
668.3664074431885
 20
2032.999999999995
 30
0.0
 11
687.3664074431886
 21
2032.999999999995
 31
0.0
  0
LINE
  5
121
330
87
100
AcDbEntity
  8
P-SANR-FIXT
100
AcDbLine
 10
814.8664074431886
 20
2023.094010767565
 30
0.0
 11
814.8664074431886
 21
2011.547005383759
 31
0.0
  0
LINE
  5
122
330
87
100
AcDbEntity
  8
P-SANR-FIXT
100
AcDbLine
 10
814.8664074431886
 20
2011.547005383759
 30
0.0
 11
814.8664074431886
 21
1988.452994616174
 31
0.0
  0
LINE
  5
123
330
87
100
AcDbEntity
  8
P-SANR-FIXT
100
AcDbLine
 10
814.8664074431886
 20
1988.452994616174
 30
0.0
 11
814.8664074431886
 21
1976.905989232395
 31
0.0
  0
LINE
  5
124
330
87
100
AcDbEntity
  8
P-SANR-FIXT
100
AcDbLine
 10
792.3664074431886
 20
1976.905989232395
 30
0.0
 11
814.8664074431886
 21
1976.905989232395
 31
0.0
  0
LINE
  5
125
330
87
100
AcDbEntity
  8
P-SANR-FIXT
100
AcDbLine
 10
814.8664074431886
 20
1988.452994616174
 30
0.0
 11
792.3664074431886
 21
1988.452994616174
 31
0.0
  0
LINE
  5
126
330
87
100
AcDbEntity
  8
P-SANR-FIXT
100
AcDbLine
 10
814.8664074431886
 20
2011.547005383759
 30
0.0
 11
792.3664074431886
 21
2011.547005383759
 31
0.0
  0
LINE
  5
127
330
87
100
AcDbEntity
  8
P-SANR-FIXT
100
AcDbLine
 10
814.8664074431886
 20
2023.094010767565
 30
0.0
 11
792.3664074431886
 21
2023.094010767565
 31
0.0
  0
LINE
  5
128
330
87
100
AcDbEntity
  8
P-SANR-FIXT
100
AcDbLine
 10
792.3664074431887
 20
1972.999999999995
 30
0.0
 11
792.3664074431886
 21
2026.999999999995
 31
0.0
  0
LINE
  5
129
330
87
100
AcDbEntity
  8
P-SANR-FIXT
100
AcDbLine
 10
636.5251646538246
 20
1923.511300474448
 30
0.0
 11
656.6777079176414
 21
1903.358757210631
 31
0.0
  0
LINE
  5
12A
330
87
100
AcDbEntity
  8
P-SANR-FIXT
100
AcDbLine
 10
633.1664074431887
 20
1938.183766184068
 30
0.0
 11
671.3501736272623
 21
1899.999999999995
 31
0.0
  0
LINE
  5
12B
330
87
100
AcDbEntity
  8
P-SANR-FIXT
100
AcDbLine
 10
596.3664074431618
 20
1978.000000000082
 30
0.0
 11
596.3664074431618
 21
1978.09691622945
 31
0.0
  0
LINE
  5
12C
330
87
100
AcDbEntity
  8
P-SANR-FIXT
100
AcDbLine
 10
596.3664074431618
 20
1978.09691622945
 30
0.0
 11
596.3664074431618
 21
1987.262067619177
 31
0.0
  0
LINE
  5
12D
330
87
100
AcDbEntity
  8
P-SANR-FIXT
100
AcDbLine
 10
596.3664074431618
 20
1987.262067619177
 30
0.0
 11
596.3664074431618
 21
1990.834848610245
 31
0.0
  0
LINE
  5
12E
330
87
100
AcDbEntity
  8
P-SANR-FIXT
100
AcDbLine
 10
596.3664074431618
 20
1990.834848610245
 30
0.0
 11
596.3664074431618
 21
2009.165151389721
 31
0.0
  0
LINE
  5
12F
330
87
100
AcDbEntity
  8
P-SANR-FIXT
100
AcDbLine
 10
596.3664074431618
 20
2009.165151389721
 30
0.0
 11
596.3664074431618
 21
2012.737932380792
 31
0.0
  0
LINE
  5
130
330
87
100
AcDbEntity
  8
P-SANR-FIXT
100
AcDbLine
 10
596.3664074431618
 20
2012.737932380792
 30
0.0
 11
596.3664074431618
 21
2021.90308377054
 31
0.0
  0
LINE
  5
131
330
87
100
AcDbEntity
  8
P-SANR-FIXT
100
AcDbLine
 10
596.3664074431618
 20
2021.90308377054
 30
0.0
 11
596.3664074431618
 21
2021.999999999911
 31
0.0
  0
LINE
  5
132
330
87
100
AcDbEntity
  8
P-SANR-FIXT
100
AcDbLine
 10
608.3664074431774
 20
1978.09691622945
 30
0.0
 11
596.3664074431618
 21
1978.09691622945
 31
0.0
  0
LINE
  5
133
330
87
100
AcDbEntity
  8
P-SANR-FIXT
100
AcDbLine
 10
608.3664074431772
 20
1987.262067619177
 30
0.0
 11
596.3664074431618
 21
1987.262067619177
 31
0.0
  0
LINE
  5
134
330
87
100
AcDbEntity
  8
P-SANR-FIXT
100
AcDbLine
 10
608.3664074431772
 20
1990.834848610245
 30
0.0
 11
596.3664074431618
 21
1990.834848610245
 31
0.0
  0
LINE
  5
135
330
87
100
AcDbEntity
  8
P-SANR-FIXT
100
AcDbLine
 10
608.3664074431768
 20
2009.165151389721
 30
0.0
 11
596.3664074431618
 21
2009.165151389721
 31
0.0
  0
LINE
  5
136
330
87
100
AcDbEntity
  8
P-SANR-FIXT
100
AcDbLine
 10
608.3664074431768
 20
2012.737932380792
 30
0.0
 11
596.3664074431618
 21
2012.737932380792
 31
0.0
  0
LINE
  5
137
330
87
100
AcDbEntity
  8
P-SANR-FIXT
100
AcDbLine
 10
608.3664074431767
 20
2021.90308377054
 30
0.0
 11
596.3664074431618
 21
2021.90308377054
 31
0.0
  0
ENDBLK
  5
139
330
87
100
AcDbEntity
  8
0
100
AcDbBlockEnd
  0
BLOCK
  5
242
330
13B
100
AcDbEntity
  8
0
100
AcDbBlockBegin
  2
Automatic flow rate regulator valve_Caleffi_121 DN15 - 1_2__-V1-Est - Idraulica
 70
     0
 10
0.0
 20
0.0
 30
0.0
  3
Automatic flow rate regulator valve_Caleffi_121 DN15 - 1_2__-V1-Est - Idraulica
  1

  0
LINE
  5
13C
330
13B
100
AcDbEntity
  8
M-PIPE
100
AcDbLine
 10
608.3664074431762
 20
1806.245878730051
 30
0.0
 11
608.3664074431761
 21
1822.745878730059
 31
0.0
1001
REVIT
1002
{
1070
     3
1000
790271
1002
}
  0
LINE
  5
13D
330
13B
100
AcDbEntity
  8
M-PIPE
100
AcDbLine
 10
608.3664074431761
 20
1822.745878730059
 30
0.0
 11
608.3664074431765
 21
1839.245878730069
 31
0.0
1001
REVIT
1002
{
1070
     3
1000
790271
1002
}
  0
LINE
  5
13E
330
13B
100
AcDbEntity
  8
M-PIPE
100
AcDbLine
 10
608.3664074431772
 20
1773.245878730033
 30
0.0
 11
608.3664074431765
 21
1789.745878730042
 31
0.0
1001
REVIT
1002
{
1070
     3
1000
790271
1002
}
  0
LINE
  5
13F
330
13B
100
AcDbEntity
  8
M-PIPE
100
AcDbLine
 10
608.3664074431765
 20
1789.745878730042
 30
0.0
 11
608.3664074431762
 21
1806.245878730051
 31
0.0
1001
REVIT
1002
{
1070
     3
1000
790271
1002
}
  0
LINE
  5
140
330
13B
100
AcDbEntity
  8
M-PIPE
100
AcDbLine
 10
634.3664074431763
 20
1839.245878730058
 30
0.0
 11
634.3664074431759
 21
1822.745878730054
 31
0.0
1001
REVIT
1002
{
1070
     3
1000
790271
1002
}
  0
LINE
  5
141
330
13B
100
AcDbEntity
  8
M-PIPE
100
AcDbLine
 10
634.366407443176
 20
1822.745878730054
 30
0.0
 11
634.366407443176
 21
1806.245878730051
 31
0.0
1001
REVIT
1002
{
1070
     3
1000
790271
1002
}
  0
LINE
  5
142
330
13B
100
AcDbEntity
  8
M-PIPE
100
AcDbLine
 10
634.366407443176
 20
1806.245878730051
 30
0.0
 11
634.3664074431764
 21
1789.745878730046
 31
0.0
1001
REVIT
1002
{
1070
     3
1000
790271
1002
}
  0
LINE
  5
143
330
13B
100
AcDbEntity
  8
M-PIPE
100
AcDbLine
 10
634.3664074431764
 20
1789.745878730047
 30
0.0
 11
634.3664074431771
 21
1773.245878730044
 31
0.0
1001
REVIT
1002
{
1070
     3
1000
790271
1002
}
  0
SPLINE
  5
144
330
13B
100
AcDbEntity
  8
M-PIPE
100
AcDbSpline
210
0.0
220
0.0
230
1.0
 70
     8
 71
     3
 72
     9
 73
     5
 74
     0
 42
0.000000001
 43
0.0000000001
 40
0.0
 40
0.0
 40
0.0
 40
0.0
 40
0.5
 40
1.0
 40
1.0
 40
1.0
 40
1.0
 10
610.098458250723
 20
1835.205814524415
 30
0.0
 10
609.5377531298758
 20
1833.178363025304
 30
0.0
 10
608.6883728744376
 20
1829.074255560464
 30
0.0
 10
608.3830525915113
 20
1824.871739162388
 30
0.0
 10
608.3664074431761
 20
1822.74587873004
 30
0.0
1001
REVIT
1002
{
1070
     3
1000
790271
1002
}
  0
SPLINE
  5
145
330
13B
100
AcDbEntity
  8
M-PIPE
100
AcDbSpline
210
0.0
220
0.0
230
1.0
 70
     8
 71
     3
 72
     9
 73
     5
 74
     0
 42
0.000000001
 43
0.0000000001
 40
0.0
 40
0.0
 40
0.0
 40
0.0
 40
0.5
 40
1.0
 40
1.0
 40
1.0
 40
1.0
 10
608.3664074431761
 20
1822.74587873004
 30
0.0
 10
608.3830525915113
 20
1820.620018297692
 30
0.0
 10
608.6883728744378
 20
1816.417501899614
 30
0.0
 10
609.5377531298766
 20
1812.313394434773
 30
0.0
 10
610.0984582507241
 20
1810.285942935661
 30
0.0
1001
REVIT
1002
{
1070
     3
1000
790271
1002
}
  0
LINE
  5
146
330
13B
100
AcDbEntity
  8
M-PIPE
100
AcDbLine
 10
610.0984582507241
 20
1810.285942935661
 30
0.0
 11
632.6343566356217
 21
1810.285942935661
 31
0.0
1001
REVIT
1002
{
1070
     3
1000
790271
1002
}
  0
SPLINE
  5
147
330
13B
100
AcDbEntity
  8
M-PIPE
100
AcDbSpline
210
0.0
220
0.0
230
1.0
 70
     8
 71
     3
 72
     9
 73
     5
 74
     0
 42
0.000000001
 43
0.0000000001
 40
0.0
 40
0.0
 40
0.0
 40
0.0
 40
0.5
 40
1.0
 40
1.0
 40
1.0
 40
1.0
 10
632.6343566356217
 20
1810.285942935661
 30
0.0
 10
633.1950617564683
 20
1812.313394434773
 30
0.0
 10
634.0444420119072
 20
1816.417501899614
 30
0.0
 10
634.3497622948379
 20
1820.620018297692
 30
0.0
 10
634.366407443176
 20
1822.74587873004
 30
0.0
1001
REVIT
1002
{
1070
     3
1000
790271
1002
}
  0
SPLINE
  5
148
330
13B
100
AcDbEntity
  8
M-PIPE
100
AcDbSpline
210
0.0
220
0.0
230
1.0
 70
     8
 71
     3
 72
     9
 73
     5
 74
     0
 42
0.000000001
 43
0.0000000001
 40
0.0
 40
0.0
 40
0.0
 40
0.0
 40
0.5
 40
1.0
 40
1.0
 40
1.0
 40
1.0
 10
634.366407443176
 20
1822.74587873004
 30
0.0
 10
634.3497622948379
 20
1824.871739162387
 30
0.0
 10
634.0444420119076
 20
1829.074255560463
 30
0.0
 10
633.195061756469
 20
1833.178363025304
 30
0.0
 10
632.6343566356227
 20
1835.205814524415
 30
0.0
1001
REVIT
1002
{
1070
     3
1000
790271
1002
}
  0
LINE
  5
149
330
13B
100
AcDbEntity
  8
M-PIPE
100
AcDbLine
 10
632.6343566356227
 20
1835.205814524415
 30
0.0
 11
610.098458250723
 21
1835.205814524415
 31
0.0
1001
REVIT
1002
{
1070
     3
1000
790271
1002
}
  0
SPLINE
  5
14A
330
13B
100
AcDbEntity
  8
M-PIPE
100
AcDbSpline
210
0.0
220
0.0
230
1.0
 70
    24
 71
     3
 72
     9
 73
     5
 74
     0
 42
0.000000001
 43
0.0000000001
 40
0.0
 40
0.0
 40
0.0
 40
0.0
 40
0.5
 40
1.0
 40
1.0
 40
1.0
 40
1.0
 10
608.3664074431762
 20
1839.245878730039
 30
0.0
 10
608.3830525915137
 20
1839.245878730039
 30
0.0
 10
608.6883728744425
 20
1839.245878730039
 30
0.0
 10
609.537753129879
 20
1839.245878730039
 30
0.0
 10
610.0984582507241
 20
1839.245878730039
 30
0.0
1001
REVIT
1002
{
1070
     3
1000
790271
1002
}
  0
LINE
  5
14B
330
13B
100
AcDbEntity
  8
M-PIPE
100
AcDbLine
 10
610.0984582507243
 20
1839.245878730039
 30
0.0
 11
632.6343566356217
 21
1839.245878730039
 31
0.0
1001
REVIT
1002
{
1070
     3
1000
790271
1002
}
  0
SPLINE
  5
14C
330
13B
100
AcDbEntity
  8
M-PIPE
100
AcDbSpline
210
0.0
220
0.0
230
1.0
 70
    24
 71
     3
 72
     9
 73
     5
 74
     0
 42
0.000000001
 43
0.0000000001
 40
0.0
 40
0.0
 40
0.0
 40
0.0
 40
0.5
 40
1.0
 40
1.0
 40
1.0
 40
1.0
 10
632.6343566356217
 20
1839.245878730039
 30
0.0
 10
633.1950617564662
 20
1839.245878730039
 30
0.0
 10
634.0444420119029
 20
1839.245878730039
 30
0.0
 10
634.3497622948357
 20
1839.245878730039
 30
0.0
 10
634.366407443176
 20
1839.245878730039
 30
0.0
1001
REVIT
1002
{
1070
     3
1000
790271
1002
}
  0
SPLINE
  5
14D
330
13B
100
AcDbEntity
  8
M-PIPE
100
AcDbSpline
210
0.0
220
0.0
230
1.0
 70
    24
 71
     3
 72
     9
 73
     5
 74
     0
 42
0.000000001
 43
0.0000000001
 40
0.0
 40
0.0
 40
0.0
 40
0.0
 40
0.5
 40
1.0
 40
1.0
 40
1.0
 40
1.0
 10
610.0984582507378
 20
1773.245878730038
 30
0.0
 10
609.5377531298953
 20
1773.245878730038
 30
0.0
 10
608.6883728744593
 20
1773.245878730038
 30
0.0
 10
608.383052591521
 20
1773.245878730039
 30
0.0
 10
608.3664074431762
 20
1773.245878730039
 30
0.0
1001
REVIT
1002
{
1070
     3
1000
790271
1002
}
  0
SPLINE
  5
14E
330
13B
100
AcDbEntity
  8
M-PIPE
100
AcDbSpline
210
0.0
220
0.0
230
1.0
 70
    24
 71
     3
 72
     9
 73
     5
 74
     0
 42
0.000000001
 43
0.0000000001
 40
0.0
 40
0.0
 40
0.0
 40
0.0
 40
0.5
 40
1.0
 40
1.0
 40
1.0
 40
1.0
 10
634.366407443176
 20
1773.245878730039
 30
0.0
 10
634.3497622948289
 20
1773.245878730039
 30
0.0
 10
634.0444420118873
 20
1773.245878730038
 30
0.0
 10
633.195061756451
 20
1773.245878730038
 30
0.0
 10
632.6343566356093
 20
1773.245878730038
 30
0.0
1001
REVIT
1002
{
1070
     3
1000
790271
1002
}
  0
LINE
  5
14F
330
13B
100
AcDbEntity
  8
M-PIPE
100
AcDbLine
 10
632.6343566356093
 20
1773.245878730038
 30
0.0
 11
610.0984582507378
 21
1773.245878730038
 31
0.0
1001
REVIT
1002
{
1070
     3
1000
790271
1002
}
  0
SPLINE
  5
150
330
13B
100
AcDbEntity
  8
M-PIPE
100
AcDbSpline
210
0.0
220
0.0
230
1.0
 70
     8
 71
     3
 72
     9
 73
     5
 74
     0
 42
0.000000001
 43
0.0000000001
 40
0.0
 40
0.0
 40
0.0
 40
0.0
 40
0.5
 40
1.0
 40
1.0
 40
1.0
 40
1.0
 10
610.0984582507258
 20
1802.205814524415
 30
0.0
 10
609.5377531298813
 20
1800.178363025306
 30
0.0
 10
608.6883728744451
 20
1796.07425556047
 30
0.0
 10
608.3830525915149
 20
1791.871739162399
 30
0.0
 10
608.3664074431761
 20
1789.745878730055
 30
0.0
1001
REVIT
1002
{
1070
     3
1000
790271
1002
}
  0
SPLINE
  5
151
330
13B
100
AcDbEntity
  8
M-PIPE
100
AcDbSpline
210
0.0
220
0.0
230
1.0
 70
     8
 71
     3
 72
     9
 73
     5
 74
     0
 42
0.000000001
 43
0.0000000001
 40
0.0
 40
0.0
 40
0.0
 40
0.0
 40
0.5
 40
1.0
 40
1.0
 40
1.0
 40
1.0
 10
608.3664074431761
 20
1789.745878730055
 30
0.0
 10
608.3830525915151
 20
1787.620018297705
 30
0.0
 10
608.688372874447
 20
1783.417501899623
 30
0.0
 10
609.5377531298876
 20
1779.313394434776
 30
0.0
 10
610.098458250735
 20
1777.285942935661
 30
0.0
1001
REVIT
1002
{
1070
     3
1000
790271
1002
}
  0
LINE
  5
152
330
13B
100
AcDbEntity
  8
M-PIPE
100
AcDbLine
 10
610.098458250735
 20
1777.285942935661
 30
0.0
 11
632.6343566356118
 21
1777.285942935661
 31
0.0
1001
REVIT
1002
{
1070
     3
1000
790271
1002
}
  0
SPLINE
  5
153
330
13B
100
AcDbEntity
  8
M-PIPE
100
AcDbSpline
210
0.0
220
0.0
230
1.0
 70
     8
 71
     3
 72
     9
 73
     5
 74
     0
 42
0.000000001
 43
0.0000000001
 40
0.0
 40
0.0
 40
0.0
 40
0.0
 40
0.5
 40
1.0
 40
1.0
 40
1.0
 40
1.0
 10
632.6343566356118
 20
1777.285942935661
 30
0.0
 10
633.1950617564581
 20
1779.313394434776
 30
0.0
 10
634.0444420118987
 20
1783.417501899622
 30
0.0
 10
634.3497622948343
 20
1787.620018297704
 30
0.0
 10
634.366407443176
 20
1789.745878730054
 30
0.0
1001
REVIT
1002
{
1070
     3
1000
790271
1002
}
  0
SPLINE
  5
154
330
13B
100
AcDbEntity
  8
M-PIPE
100
AcDbSpline
210
0.0
220
0.0
230
1.0
 70
     8
 71
     3
 72
     9
 73
     5
 74
     0
 42
0.000000001
 43
0.0000000001
 40
0.0
 40
0.0
 40
0.0
 40
0.0
 40
0.5
 40
1.0
 40
1.0
 40
1.0
 40
1.0
 10
634.366407443176
 20
1789.745878730054
 30
0.0
 10
634.3497622948344
 20
1791.871739162398
 30
0.0
 10
634.0444420119004
 20
1796.074255560469
 30
0.0
 10
633.195061756464
 20
1800.178363025305
 30
0.0
 10
632.6343566356201
 20
1802.205814524415
 30
0.0
1001
REVIT
1002
{
1070
     3
1000
790271
1002
}
  0
LINE
  5
155
330
13B
100
AcDbEntity
  8
M-PIPE
100
AcDbLine
 10
632.6343566356201
 20
1802.205814524415
 30
0.0
 11
610.0984582507258
 21
1802.205814524415
 31
0.0
1001
REVIT
1002
{
1070
     3
1000
790271
1002
}
  0
LINE
  5
156
330
13B
100
AcDbEntity
  8
M-PIPE
100
AcDbLine
 10
610.0984582507274
 20
1806.245878730044
 30
0.0
 11
610.0984582507274
 21
1810.285942935662
 31
0.0
1001
REVIT
1002
{
1070
     3
1000
790271
1002
}
  0
LINE
  5
157
330
13B
100
AcDbEntity
  8
M-PIPE
100
AcDbLine
 10
610.0984582507262
 20
1835.205814524419
 30
0.0
 11
610.0984582507264
 21
1839.245878730041
 31
0.0
1001
REVIT
1002
{
1070
     3
1000
790271
1002
}
  0
LINE
  5
158
330
13B
100
AcDbEntity
  8
M-PIPE
100
AcDbLine
 10
610.0984582507372
 20
1773.245878730039
 30
0.0
 11
610.098458250737
 21
1777.285942935658
 31
0.0
1001
REVIT
1002
{
1070
     3
1000
790271
1002
}
  0
LINE
  5
159
330
13B
100
AcDbEntity
  8
M-PIPE
100
AcDbLine
 10
610.0984582507281
 20
1802.205814524414
 30
0.0
 11
610.0984582507281
 21
1806.245878730044
 31
0.0
1001
REVIT
1002
{
1070
     3
1000
790271
1002
}
  0
LINE
  5
15A
330
13B
100
AcDbEntity
  8
M-PIPE
100
AcDbLine
 10
632.6343566356193
 20
1839.245878730042
 30
0.0
 11
632.6343566356193
 21
1835.20581452442
 31
0.0
1001
REVIT
1002
{
1070
     3
1000
790271
1002
}
  0
LINE
  5
15B
330
13B
100
AcDbEntity
  8
M-PIPE
100
AcDbLine
 10
632.6343566356193
 20
1810.285942935662
 30
0.0
 11
632.6343566356195
 21
1806.245878730045
 31
0.0
1001
REVIT
1002
{
1070
     3
1000
790271
1002
}
  0
LINE
  5
15C
330
13B
100
AcDbEntity
  8
M-PIPE
100
AcDbLine
 10
632.6343566356188
 20
1806.245878730045
 30
0.0
 11
632.6343566356189
 21
1802.205814524415
 31
0.0
1001
REVIT
1002
{
1070
     3
1000
790271
1002
}
  0
LINE
  5
15D
330
13B
100
AcDbEntity
  8
M-PIPE
100
AcDbLine
 10
632.6343566356118
 20
1777.285942935662
 30
0.0
 11
632.6343566356121
 21
1773.245878730043
 31
0.0
1001
REVIT
1002
{
1070
     3
1000
790271
1002
}
  0
LINE
  5
15E
330
13B
100
AcDbEntity
  8
M-PIPE
100
AcDbLine
 10
889.8664074431898
 20
1797.24587873005
 30
0.0
 11
801.8664074431898
 21
1797.245878730051
 31
0.0
1001
REVIT
1002
{
1070
     3
1000
856288
1002
}
  0
LINE
  5
15F
330
13B
100
AcDbEntity
  8
M-PIPE
100
AcDbLine
 10
801.8664074431899
 20
1815.245878730051
 30
0.0
 11
889.86640744319
 21
1815.245878730051
 31
0.0
1001
REVIT
1002
{
1070
     3
1000
856288
1002
}
  0
LINE
  5
160
330
13B
100
AcDbEntity
  8
M-PIPE
100
AcDbLine
 10
889.8664074431898
 20
1815.245878730051
 30
0.0
 11
889.8664074431898
 21
1797.24587873005
 31
0.0
1001
REVIT
1002
{
1070
     3
1000
856288
1002
}
  0
LINE
  5
161
330
13B
100
AcDbEntity
  8
M-PIPE
100
AcDbLine
 10
801.8664074431899
 20
1815.245878730051
 30
0.0
 11
801.8664074431898
 21
1797.245878730051
 31
0.0
1001
REVIT
1002
{
1070
     3
1000
856288
1002
}
  0
LINE
  5
162
330
13B
100
AcDbEntity
  8
M-PIPE
100
AcDbLine
 10
792.0800665649604
 20
1797.245878730051
 30
0.0
 11
782.8424622579473
 21
1797.245878730051
 31
0.0
1001
REVIT
1002
{
1070
     3
1000
856288
1002
}
  0
LINE
  5
163
330
13B
100
AcDbEntity
  8
M-PIPE
100
AcDbLine
 10
782.8424622579473
 20
1797.245878730051
 30
0.0
 11
753.8664074431896
 21
1797.245878730052
 31
0.0
1001
REVIT
1002
{
1070
     3
1000
856288
1002
}
  0
LINE
  5
164
330
13B
100
AcDbEntity
  8
M-PIPE
100
AcDbLine
 10
801.8664074431898
 20
1797.245878730051
 30
0.0
 11
792.0800665649604
 21
1797.245878730051
 31
0.0
1001
REVIT
1002
{
1070
     3
1000
856288
1002
}
  0
LINE
  5
165
330
13B
100
AcDbEntity
  8
M-PIPE
100
AcDbLine
 10
792.0800665649604
 20
1815.245878730051
 30
0.0
 11
801.8664074431899
 21
1815.245878730051
 31
0.0
1001
REVIT
1002
{
1070
     3
1000
856288
1002
}
  0
LINE
  5
166
330
13B
100
AcDbEntity
  8
M-PIPE
100
AcDbLine
 10
776.8664074431946
 20
1815.245878730052
 30
0.0
 11
782.8424622579474
 21
1815.245878730052
 31
0.0
1001
REVIT
1002
{
1070
     3
1000
856288
1002
}
  0
LINE
  5
167
330
13B
100
AcDbEntity
  8
M-PIPE
100
AcDbLine
 10
782.8424622579474
 20
1815.245878730052
 30
0.0
 11
792.0800665649604
 21
1815.245878730051
 31
0.0
1001
REVIT
1002
{
1070
     3
1000
856288
1002
}
  0
LINE
  5
168
330
13B
100
AcDbEntity
  8
M-PIPE
100
AcDbLine
 10
801.8664074431899
 20
1815.245878730051
 30
0.0
 11
801.8664074431898
 21
1797.245878730051
 31
0.0
1001
REVIT
1002
{
1070
     3
1000
856288
1002
}
  0
ARC
  5
169
330
13B
100
AcDbEntity
  8
M-PIPE
100
AcDbCircle
 10
769.8664074432022
 20
1806.245878730035
 30
0.0
 40
5.499999999999952
100
AcDbArc
 50
180.0000000000012
 51
359.9999999999984
1001
REVIT
1002
{
1070
     3
1000
856288
1002
}
  0
ARC
  5
16A
330
13B
100
AcDbEntity
  8
M-PIPE
100
AcDbCircle
 10
769.8664074432022
 20
1806.245878730035
 30
0.0
 40
5.5
100
AcDbArc
 50
0.0
 51
180.0
1001
REVIT
1002
{
1070
     3
1000
856288
1002
}
  0
LINE
  5
16B
330
13B
100
AcDbEntity
  8
M-PIPE
100
AcDbLine
 10
782.8424622579473
 20
1797.245878730051
 30
0.0
 11
782.8424622579474
 21
1815.245878730052
 31
0.0
1001
REVIT
1002
{
1070
     3
1000
856288
1002
}
  0
LINE
  5
16C
330
13B
100
AcDbEntity
  8
M-PIPE
100
AcDbLine
 10
776.8664074431946
 20
1815.245878730052
 30
0.0
 11
776.8664074431946
 21
1818.745878730035
 31
0.0
1001
REVIT
1002
{
1070
     3
1000
856288
1002
}
  0
LINE
  5
16D
330
13B
100
AcDbEntity
  8
M-PIPE
100
AcDbLine
 10
776.8664074431946
 20
1818.745878730035
 30
0.0
 11
769.8664074431945
 21
1818.745878730035
 31
0.0
1001
REVIT
1002
{
1070
     3
1000
856288
1002
}
  0
LINE
  5
16E
330
13B
100
AcDbEntity
  8
M-PIPE
100
AcDbLine
 10
769.8664074431945
 20
1818.745878730035
 30
0.0
 11
757.3664074431945
 21
1806.245878730035
 31
0.0
1001
REVIT
1002
{
1070
     3
1000
856288
1002
}
  0
LINE
  5
16F
330
13B
100
AcDbEntity
  8
M-PIPE
100
AcDbLine
 10
757.3664074431945
 20
1806.245878730035
 30
0.0
 11
753.8664074431896
 21
1802.74587873003
 31
0.0
1001
REVIT
1002
{
1070
     3
1000
856288
1002
}
  0
LINE
  5
170
330
13B
100
AcDbEntity
  8
M-PIPE
100
AcDbLine
 10
792.0800665649604
 20
1815.245878730051
 30
0.0
 11
792.0800665649604
 21
1797.245878730051
 31
0.0
1001
REVIT
1002
{
1070
     3
1000
856288
1002
}
  0
LINE
  5
171
330
13B
100
AcDbEntity
  8
M-PIPE
100
AcDbLine
 10
753.8664074431896
 20
1802.74587873003
 30
0.0
 11
753.8664074431896
 21
1797.245878730052
 31
0.0
1001
REVIT
1002
{
1070
     3
1000
856288
1002
}
  0
ARC
  5
172
330
13B
100
AcDbEntity
  8
P-SANR-FIXT
100
AcDbCircle
 10
769.8664074431866
 20
1806.245878730052
 30
0.0
 40
5.499999999999886
100
AcDbArc
 50
0.0
 51
180.0
  0
ARC
  5
173
330
13B
100
AcDbEntity
  8
P-SANR-FIXT
100
AcDbCircle
 10
769.8664074431866
 20
1806.245878730052
 30
0.0
 40
5.5
100
AcDbArc
 50
180.0
 51
0.0
  0
LINE
  5
174
330
13B
100
AcDbEntity
  8
P-SANR-FIXT
100
AcDbLine
 10
677.8664074431885
 20
1797.008274423018
 30
0.0
 11
685.8664074431884
 21
1801.627076576535
 31
0.0
  0
LINE
  5
175
330
13B
100
AcDbEntity
  8
P-SANR-FIXT
100
AcDbLine
 10
685.8664074431884
 20
1801.627076576535
 30
0.0
 11
685.8664074431884
 21
1810.864680883569
 31
0.0
  0
LINE
  5
176
330
13B
100
AcDbEntity
  8
P-SANR-FIXT
100
AcDbLine
 10
685.8664074431884
 20
1810.864680883569
 30
0.0
 11
677.8664074431885
 21
1815.483483037086
 31
0.0
  0
LINE
  5
177
330
13B
100
AcDbEntity
  8
P-SANR-FIXT
100
AcDbLine
 10
677.8664074431885
 20
1815.483483037086
 30
0.0
 11
669.8664074431885
 21
1810.864680883569
 31
0.0
  0
LINE
  5
178
330
13B
100
AcDbEntity
  8
P-SANR-FIXT
100
AcDbLine
 10
669.8664074431885
 20
1810.864680883569
 30
0.0
 11
669.8664074431884
 21
1801.627076576535
 31
0.0
  0
LINE
  5
179
330
13B
100
AcDbEntity
  8
P-SANR-FIXT
100
AcDbLine
 10
669.8664074431884
 20
1801.627076576535
 30
0.0
 11
677.8664074431885
 21
1797.008274423018
 31
0.0
  0
LINE
  5
17A
330
13B
100
AcDbEntity
  8
P-SANR-FIXT
100
AcDbLine
 10
737.8664074431866
 20
1797.008274423018
 30
0.0
 11
745.8664074431866
 21
1801.627076576535
 31
0.0
  0
LINE
  5
17B
330
13B
100
AcDbEntity
  8
P-SANR-FIXT
100
AcDbLine
 10
745.8664074431866
 20
1801.627076576535
 30
0.0
 11
745.8664074431867
 21
1810.864680883569
 31
0.0
  0
LINE
  5
17C
330
13B
100
AcDbEntity
  8
P-SANR-FIXT
100
AcDbLine
 10
745.8664074431867
 20
1810.864680883569
 30
0.0
 11
737.8664074431866
 21
1815.483483037086
 31
0.0
  0
LINE
  5
17D
330
13B
100
AcDbEntity
  8
P-SANR-FIXT
100
AcDbLine
 10
737.8664074431866
 20
1815.483483037086
 30
0.0
 11
729.8664074431867
 21
1810.864680883569
 31
0.0
  0
LINE
  5
17E
330
13B
100
AcDbEntity
  8
P-SANR-FIXT
100
AcDbLine
 10
729.8664074431867
 20
1810.864680883569
 30
0.0
 11
729.8664074431866
 21
1801.627076576535
 31
0.0
  0
LINE
  5
17F
330
13B
100
AcDbEntity
  8
P-SANR-FIXT
100
AcDbLine
 10
729.8664074431866
 20
1801.627076576535
 30
0.0
 11
737.8664074431866
 21
1797.008274423018
 31
0.0
  0
LWPOLYLINE
  5
180
330
13B
100
AcDbEntity
  8
P-SANR-FIXT
100
AcDbPolyline
 90
       17
 70
   128
 43
0.0
 10
731.4573765879571
 20
1780.745878730053
 10
732.3195910115944
 20
1780.770265894781
 10
733.1790815478228
 20
1780.843274226558
 10
734.0331795249809
 20
1780.964450593331
 10
734.8793229400165
 20
1781.133060347028
 10
735.7151008508634
 20
1781.34811613676
 10
736.5382882526786
 20
1781.608414483702
 10
737.3468700473859
 20
1781.912577039517
 10
738.139053825064
 20
1782.259093380067
 10
738.9132721653088
 20
1782.646362480686
 10
739.6681759201229
 20
1783.072730578243
 10
740.4026204017756
 20
1783.536523823494
 10
741.115646572318
 20
1784.036074845283
 10
741.806459262268
 20
1784.569742991999
 10
742.4744042039821
 20
1785.135928527462
 10
743.1189453245337
 20
1785.733081415109
 10
743.1317728881866
 20
1785.746031449038
  0
LWPOLYLINE
  5
181
330
13B
100
AcDbEntity
  8
P-SANR-FIXT
100
AcDbPolyline
 90
       17
 70
   128
 43
0.0
 10
743.1275354015369
 20
1826.745725931633
 10
742.6340553254942
 20
1827.212734818945
 10
741.9717829013261
 20
1827.786627269328
 10
741.2865016936859
 20
1828.328385850456
 10
740.578835032833
 20
1828.83642234786
 10
739.849541531869
 20
1829.30910501571
 10
739.0995381091428
 20
1829.744771381711
 10
738.3299222120572
 20
1830.141746969631
 10
737.5419915336163
 20
1830.498370318301
 10
736.7372592402438
 20
1830.813024201157
 10
735.9174626111435
 20
1831.084172334868
 10
735.084563097973
 20
1831.310400158333
 10
734.2407362027249
 20
1831.490457549834
 10
733.3883502566368
 20
1831.623300745426
 10
732.5299341233546
 20
1831.708130351713
 10
731.6681349431826
 20
1831.744422320461
 10
731.4573765879571
 20
1831.745878730053
  0
LINE
  5
182
330
13B
100
AcDbEntity
  8
P-SANR-FIXT
100
AcDbLine
 10
702.7921306841208
 20
1780.745878730053
 30
0.0
 11
731.4573765879571
 21
1780.745878730053
 31
0.0
  0
LINE
  5
183
330
13B
100
AcDbEntity
  8
P-SANR-FIXT
100
AcDbLine
 10
731.457376587957
 20
1831.745878730053
 30
0.0
 11
702.7921306841205
 21
1831.745878730053
 31
0.0
  0
LINE
  5
184
330
13B
100
AcDbEntity
  8
P-SANR-FIXT
100
AcDbLine
 10
662.3102674611909
 20
1776.995878730052
 30
0.0
 11
699.117284473654
 21
1776.995878730052
 31
0.0
  0
LINE
  5
185
330
13B
100
AcDbEntity
  8
P-SANR-FIXT
100
AcDbLine
 10
699.2458607107438
 20
1776.995878730052
 30
0.0
 11
700.1404802546712
 21
1776.995878730052
 31
0.0
  0
LINE
  5
186
330
13B
100
AcDbEntity
  8
P-SANR-FIXT
100
AcDbLine
 10
700.140480254671
 20
1835.495878730053
 30
0.0
 11
699.2458607107436
 21
1835.495878730053
 31
0.0
  0
LINE
  5
187
330
13B
100
AcDbEntity
  8
P-SANR-FIXT
100
AcDbLine
 10
699.1172844736539
 20
1835.495878730053
 30
0.0
 11
662.3102674611909
 21
1835.495878730053
 31
0.0
  0
LINE
  5
188
330
13B
100
AcDbEntity
  8
P-SANR-FIXT
100
AcDbLine
 10
652.2582905352262
 20
1779.245878730053
 30
0.0
 11
654.3952744965527
 21
1779.245878730053
 31
0.0
  0
LINE
  5
189
330
13B
100
AcDbEntity
  8
P-SANR-FIXT
100
AcDbLine
 10
654.3952744965525
 20
1833.245878730053
 30
0.0
 11
652.2582905352262
 21
1833.245878730053
 31
0.0
  0
LINE
  5
18A
330
13B
100
AcDbEntity
  8
P-SANR-FIXT
100
AcDbLine
 10
736.8325986268762
 20
1785.745878730052
 30
0.0
 11
751.2786942029181
 21
1785.745878730052
 31
0.0
  0
LINE
  5
18B
330
13B
100
AcDbEntity
  8
P-SANR-FIXT
100
AcDbLine
 10
751.2786942029181
 20
1826.745878730053
 30
0.0
 11
736.8325986268761
 21
1826.745878730053
 31
0.0
  0
LINE
  5
18C
330
13B
100
AcDbEntity
  8
P-SANR-FIXT
100
AcDbLine
 10
751.2786942029181
 20
1785.745878730053
 30
0.0
 11
752.8250276000627
 21
1783.067550720758
 31
0.0
  0
LINE
  5
18D
330
13B
100
AcDbEntity
  8
P-SANR-FIXT
100
AcDbLine
 10
752.8312360805464
 20
1783.056797317122
 30
0.0
 11
752.8664074431893
 21
1782.995878730053
 31
0.0
  0
LINE
  5
18E
330
13B
100
AcDbEntity
  8
P-SANR-FIXT
100
AcDbLine
 10
752.8664074431893
 20
1829.495878730052
 30
0.0
 11
752.8312360805464
 21
1829.434960142984
 31
0.0
  0
LINE
  5
18F
330
13B
100
AcDbEntity
  8
P-SANR-FIXT
100
AcDbLine
 10
752.8250276000627
 20
1829.424206739348
 30
0.0
 11
751.2786942029181
 21
1826.745878730053
 31
0.0
  0
LINE
  5
190
330
13B
100
AcDbEntity
  8
P-SANR-FIXT
100
AcDbLine
 10
752.8664074431893
 20
1782.995878730053
 30
0.0
 11
785.0126687991335
 21
1782.995878730053
 31
0.0
  0
LINE
  5
191
330
13B
100
AcDbEntity
  8
P-SANR-FIXT
100
AcDbLine
 10
785.0126687991335
 20
1829.495878730053
 30
0.0
 11
752.8664074431893
 21
1829.495878730053
 31
0.0
  0
LINE
  5
192
330
13B
100
AcDbEntity
  8
P-SANR-FIXT
100
AcDbLine
 10
785.0126687991335
 20
1782.995878730053
 30
0.0
 11
787.4174635427168
 21
1778.830652052391
 31
0.0
  0
LINE
  5
193
330
13B
100
AcDbEntity
  8
P-SANR-FIXT
100
AcDbLine
 10
787.4281526534866
 20
1778.812137969451
 30
0.0
 11
787.4664074431893
 21
1778.745878730053
 31
0.0
  0
LINE
  5
194
330
13B
100
AcDbEntity
  8
P-SANR-FIXT
100
AcDbLine
 10
787.4664074431893
 20
1833.745878730053
 30
0.0
 11
787.4281526534866
 21
1833.679619490655
 31
0.0
  0
LINE
  5
195
330
13B
100
AcDbEntity
  8
P-SANR-FIXT
100
AcDbLine
 10
787.4174635427168
 20
1833.661105407714
 30
0.0
 11
785.0126687991335
 21
1829.495878730053
 31
0.0
  0
LINE
  5
196
330
13B
100
AcDbEntity
  8
P-SANR-FIXT
100
AcDbLine
 10
787.4664074431893
 20
1778.745878730053
 30
0.0
 11
789.8664074431893
 21
1778.745878730053
 31
0.0
  0
LINE
  5
197
330
13B
100
AcDbEntity
  8
P-SANR-FIXT
100
AcDbLine
 10
789.8664074431893
 20
1833.745878730053
 30
0.0
 11
787.4664074431893
 21
1833.745878730053
 31
0.0
  0
LINE
  5
198
330
13B
100
AcDbEntity
  8
P-SANR-FIXT
100
AcDbLine
 10
634.3664074431772
 20
1780.245878730053
 30
0.0
 11
693.8664074431893
 21
1780.245878730053
 31
0.0
  0
LINE
  5
199
330
13B
100
AcDbEntity
  8
P-SANR-FIXT
100
AcDbLine
 10
693.8664074431893
 20
1832.245878730053
 30
0.0
 11
634.3664074431767
 21
1832.245878730053
 31
0.0
  0
LWPOLYLINE
  5
19A
330
13B
100
AcDbEntity
  8
P-SANR-FIXT
100
AcDbPolyline
 90
       41
 70
   128
 43
0.0
 10
699.8664074431893
 20
1786.245878730052
 10
699.8664074431893
 20
1786.261876596833
 10
699.8664074431893
 20
1786.309844604
 10
699.8664074431893
 20
1786.389706012975
 10
699.8664074431893
 20
1786.50133306254
 10
699.8664074431893
 20
1786.644547173228
 10
699.8664074431893
 20
1786.819119233012
 10
699.8664074431893
 20
1787.024769963837
 10
699.8664074431893
 20
1787.261170368404
 10
699.8664074431893
 20
1787.527942256494
 10
699.8664074431893
 20
1787.824658849995
 10
699.8664074431893
 20
1788.150845465654
 10
699.8664074431893
 20
1788.505980274467
 10
699.8664074431893
 20
1788.8894951365
 10
699.8664074431893
 20
1789.300776509784
 10
699.8664074431893
 20
1789.739166431859
 10
699.8664074431893
 20
1790.203963572366
 10
699.8664074431893
 20
1790.694424355034
 10
699.8664074431893
 20
1791.209764147235
 10
699.8664074431893
 20
1791.749158515235
 10
699.8664074431893
 20
1792.311744543109
 10
699.8664074431893
 20
1792.896622213226
 10
699.8664074431893
 20
1793.502855846081
 10
699.8664074431893
 20
1794.129475597183
 10
699.8664074431893
 20
1794.775479008603
 10
699.8664074431893
 20
1795.43983261269
 10
699.8664074431893
 20
1796.121473585397
 10
699.8664074431893
 20
1796.819311446578
 10
699.8664074431893
 20
1797.532229804519
 10
699.8664074431893
 20
1798.259088141927
 10
699.8664074431893
 20
1798.998723640519
 10
699.8664074431893
 20
1799.749953041277
 10
699.8664074431893
 20
1800.511574537414
 10
699.8664074431893
 20
1801.282369697005
 10
699.8664074431893
 20
1802.061105412224
 10
699.8664074431893
 20
1802.846535872048
 10
699.8664074431893
 20
1803.63740455529
 10
699.8664074431893
 20
1804.432446240767
 10
699.8664074431893
 20
1805.230389031381
 10
699.8664074431893
 20
1806.029956388888
 10
699.8664074431893
 20
1806.245878730053
  0
LWPOLYLINE
  5
19B
330
13B
100
AcDbEntity
  8
P-SANR-FIXT
100
AcDbPolyline
 90
       41
 70
   128
 43
0.0
 10
699.8664074431893
 20
1806.245878730053
 10
699.8664074431893
 20
1807.045665413786
 10
699.8664074431893
 20
1807.844172609436
 10
699.8664074431893
 20
1808.640122875831
 10
699.8664074431893
 20
1809.432242862338
 10
699.8664074431893
 20
1810.219265345954
 10
699.8664074431893
 20
1810.999931258596
 10
699.8664074431893
 20
1811.772991701335
 10
699.8664074431893
 20
1812.537209942376
 10
699.8664074431893
 20
1813.291363395555
 10
699.8664074431893
 20
1814.034245576226
 10
699.8664074431893
 20
1814.764668031373
 10
699.8664074431893
 20
1815.481462240883
 10
699.8664074431893
 20
1816.183481486928
 10
699.8664074431893
 20
1816.869602688471
 10
699.8664074431893
 20
1817.538728197954
 10
699.8664074431893
 20
1818.189787557301
 10
699.8664074431893
 20
1818.821739210423
 10
699.8664074431893
 20
1819.433572169483
 10
699.8664074431893
 20
1820.024307632264
 10
699.8664074431893
 20
1820.593000548043
 10
699.8664074431893
 20
1821.13874112947
 10
699.8664074431893
 20
1821.660656308032
 10
699.8664074431893
 20
1822.157911130781
 10
699.8664074431893
 20
1822.629710096073
 10
699.8664074431893
 20
1823.075298426211
 10
699.8664074431893
 20
1823.49396327492
 10
699.8664074431893
 20
1823.885034867752
 10
699.8664074431893
 20
1824.247887573583
 10
699.8664074431893
 20
1824.581940905488
 10
699.8664074431893
 20
1824.886660449398
 10
699.8664074431893
 20
1825.161558719044
 10
699.8664074431893
 20
1825.406195935838
 10
699.8664074431893
 20
1825.620180732418
 10
699.8664074431893
 20
1825.803170778759
 10
699.8664074431893
 20
1825.954873329822
 10
699.8664074431893
 20
1826.075045693887
 10
699.8664074431893
 20
1826.163495620806
 10
699.8664074431893
 20
1826.220081609565
 10
699.8664074431893
 20
1826.244713134652
 10
699.8664074431893
 20
1826.245878730053
  0
LINE
  5
19C
330
13B
100
AcDbEntity
  8
P-SANR-FIXT
100
AcDbLine
 10
789.8664074431896
 20
1779.245878730053
 30
0.0
 11
792.3664074431894
 21
1779.245878730053
 31
0.0
  0
LINE
  5
19D
330
13B
100
AcDbEntity
  8
P-SANR-FIXT
100
AcDbLine
 10
792.3664074431894
 20
1833.245878730053
 30
0.0
 11
789.8664074431893
 21
1833.245878730053
 31
0.0
  0
LWPOLYLINE
  5
19E
330
13B
100
AcDbEntity
  8
P-SANR-FIXT
100
AcDbPolyline
 90
        3
 70
   128
 43
0.0
 10
735.7494728292055
 20
1785.77381906656
 10
733.1360671508688
 20
1786.079496819956
 10
730.5833420571713
 20
1786.717401769372
  0
LWPOLYLINE
  5
19F
330
13B
100
AcDbEntity
  8
P-SANR-FIXT
100
AcDbPolyline
 90
        3
 70
   128
 43
0.0
 10
730.5833420571713
 20
1825.774355690732
 10
733.1360671508689
 20
1826.412260640149
 10
735.7494728292055
 20
1826.717938393544
  0
SPLINE
  5
1A0
330
13B
100
AcDbEntity
  8
P-SANR-FIXT
100
AcDbSpline
210
0.0
220
0.0
230
1.0
 70
     8
 71
     3
 72
     9
 73
     5
 74
     0
 42
0.000000001
 43
0.0000000001
 40
-1.0
 40
-1.0
 40
-1.0
 40
-1.0
 40
-0.5
 40
0.0
 40
0.0
 40
0.0
 40
0.0
 10
730.5833420571713
 20
1786.717401769372
 30
0.0
 10
729.3536653158994
 20
1787.130677872149
 30
0.0
 10
726.8378328056303
 20
1788.202249940225
 30
0.0
 10
724.209042239911
 20
1789.677856407134
 30
0.0
 10
722.8664074431885
 20
1790.493626137213
 30
0.0
  0
SPLINE
  5
1A1
330
13B
100
AcDbEntity
  8
P-SANR-FIXT
100
AcDbSpline
210
0.0
220
0.0
230
1.0
 70
     8
 71
     3
 72
    24
 73
    20
 74
     0
 42
0.000000001
 43
0.0000000001
 40
0.0
 40
0.0
 40
0.0
 40
0.0
 40
0.125
 40
0.1875
 40
0.21875
 40
0.25
 40
0.28125
 40
0.3125
 40
0.375
 40
0.4375
 40
0.46875
 40
0.5
 40
0.53125
 40
0.5625
 40
0.625
 40
0.6875
 40
0.75
 40
0.875
 40
1.0
 40
1.0
 40
1.0
 40
1.0
 10
722.8664074431885
 20
1790.493626137213
 30
0.0
 10
722.3466956870058
 20
1790.863315857801
 30
0.0
 10
721.6194231870929
 20
1791.523011608338
 30
0.0
 10
720.8981915963635
 20
1792.441477430649
 30
0.0
 10
720.5264469828864
 20
1793.004483857037
 30
0.0
 10
720.2666911664684
 20
1793.44372910003
 30
0.0
 10
720.0345458062611
 20
1793.902858935694
 30
0.0
 10
719.767214343281
 20
1794.541603452889
 30
0.0
 10
719.497298104248
 20
1795.378477580958
 30
0.0
 10
719.2845042327885
 20
1796.246593719423
 30
0.0
 10
719.130673267927
 20
1796.95041364952
 30
0.0
 10
719.0158974347407
 20
1797.47972901529
 30
0.0
 10
718.9081952204474
 20
1798.013960670268
 30
0.0
 10
718.7870887290285
 20
1798.737174810346
 30
0.0
 10
718.6663461006055
 20
1799.653677130324
 30
0.0
 10
718.5593638603196
 20
1800.761921092356
 30
0.0
 10
718.4389661156915
 20
1802.232493459144
 30
0.0
 10
718.3333202603022
 20
1804.060502786692
 30
0.0
 10
718.3191581395341
 20
1805.519458409069
 30
0.0
 10
718.327206230681
 20
1806.245878730052
 30
0.0
  0
SPLINE
  5
1A2
330
13B
100
AcDbEntity
  8
P-SANR-FIXT
100
AcDbSpline
210
0.0
220
0.0
230
1.0
 70
     8
 71
     3
 72
     8
 73
     4
 74
     0
 42
0.000000001
 43
0.0000000001
 40
-0.0534284504845758
 40
-0.0534284504845758
 40
-0.0534284504845758
 40
-0.0534284504845758
 40
0.0
 40
0.0
 40
0.0
 40
0.0
 10
736.8311601220409
 20
1785.745971819806
 30
0.0
 10
736.473239020995
 20
1785.745930373181
 30
0.0
 10
736.1129630644177
 20
1785.755383224777
 30
0.0
 10
735.7494728292055
 20
1785.77381906656
 30
0.0
  0
SPLINE
  5
1A3
330
13B
100
AcDbEntity
  8
P-SANR-FIXT
100
AcDbSpline
210
0.0
220
0.0
230
1.0
 70
     8
 71
     3
 72
    24
 73
    20
 74
     0
 42
0.000000001
 43
0.0000000001
 40
0.0
 40
0.0
 40
0.0
 40
0.0
 40
0.125
 40
0.25
 40
0.3125
 40
0.375
 40
0.4375
 40
0.46875
 40
0.5
 40
0.53125
 40
0.5625
 40
0.625
 40
0.6875
 40
0.71875
 40
0.75
 40
0.78125
 40
0.8125
 40
0.875
 40
1.0
 40
1.0
 40
1.0
 40
1.0
 10
718.3272062306812
 20
1806.245878730052
 30
0.0
 10
718.3191581395341
 20
1806.972299051036
 30
0.0
 10
718.3333202603022
 20
1808.431254673413
 30
0.0
 10
718.4389661156915
 20
1810.259264000961
 30
0.0
 10
718.5593638603196
 20
1811.729836367748
 30
0.0
 10
718.6663461006055
 20
1812.838080329781
 30
0.0
 10
718.7870887290285
 20
1813.754582649757
 30
0.0
 10
718.9081952204474
 20
1814.477796789837
 30
0.0
 10
719.0158974347407
 20
1815.012028444814
 30
0.0
 10
719.130673267927
 20
1815.541343810584
 30
0.0
 10
719.2845042327885
 20
1816.245163740681
 30
0.0
 10
719.497298104248
 20
1817.113279879146
 30
0.0
 10
719.767214343281
 20
1817.950154007216
 30
0.0
 10
720.0345458062611
 20
1818.58889852441
 30
0.0
 10
720.2666911664683
 20
1819.048028360074
 30
0.0
 10
720.5264469828864
 20
1819.487273603067
 30
0.0
 10
720.8981915963635
 20
1820.050280029455
 30
0.0
 10
721.6194231870929
 20
1820.968745851766
 30
0.0
 10
722.3466956870058
 20
1821.628441602303
 30
0.0
 10
722.8664074431885
 20
1821.998131322891
 30
0.0
  0
SPLINE
  5
1A4
330
13B
100
AcDbEntity
  8
P-SANR-FIXT
100
AcDbSpline
210
0.0
220
0.0
230
1.0
 70
     8
 71
     3
 72
     9
 73
     5
 74
     0
 42
0.000000001
 43
0.0000000001
 40
-1.0
 40
-1.0
 40
-1.0
 40
-1.0
 40
-0.5
 40
0.0
 40
0.0
 40
0.0
 40
0.0
 10
722.8664074431885
 20
1821.998131322892
 30
0.0
 10
724.209042239911
 20
1822.81390105297
 30
0.0
 10
726.8378328056303
 20
1824.289507519879
 30
0.0
 10
729.3536653158994
 20
1825.361079587956
 30
0.0
 10
730.5833420571713
 20
1825.774355690732
 30
0.0
  0
SPLINE
  5
1A5
330
13B
100
AcDbEntity
  8
P-SANR-FIXT
100
AcDbSpline
210
0.0
220
0.0
230
1.0
 70
     8
 71
     3
 72
     8
 73
     4
 74
     0
 42
0.000000001
 43
0.0000000001
 40
-1.0
 40
-1.0
 40
-1.0
 40
-1.0
 40
-0.9465715495154295
 40
-0.9465715495154295
 40
-0.9465715495154295
 40
-0.9465715495154295
 10
735.7494728292055
 20
1826.717938393544
 30
0.0
 10
736.1129630644176
 20
1826.736374235328
 30
0.0
 10
736.4741661081964
 20
1826.745886927188
 30
0.0
 10
736.832840938699
 20
1826.74589284353
 30
0.0
  0
LWPOLYLINE
  5
1A6
330
13B
100
AcDbEntity
  8
P-SANR-FIXT
100
AcDbPolyline
 90
        3
 70
   128
 43
0.0
 10
713.1039616026741
 20
1806.245878730052
 10
713.145088717018
 20
1805.028381866058
 10
713.2683762539033
 20
1803.813661970268
  0
SPLINE
  5
1A7
330
13B
100
AcDbEntity
  8
P-SANR-FIXT
100
AcDbSpline
210
0.0
220
0.0
230
1.0
 70
     8
 71
     3
 72
     8
 73
     4
 74
     0
 42
0.000000001
 43
0.0000000001
 40
0.1801136128241734
 40
0.1801136128241734
 40
0.1801136128241734
 40
0.1801136128241734
 40
0.3088079692066852
 40
0.3088079692066852
 40
0.3088079692066852
 40
0.3088079692066852
 10
699.6591239518409
 20
1785.064410099734
 30
0.0
 10
699.6037868044371
 20
1784.804640082979
 30
0.0
 10
699.5500903932054
 20
1784.549762699606
 30
0.0
 10
699.4895220188596
 20
1784.311340178387
 30
0.0
  0
SPLINE
  5
1A8
330
13B
100
AcDbEntity
  8
P-SANR-FIXT
100
AcDbSpline
210
0.0
220
0.0
230
1.0
 70
     8
 71
     3
 72
     9
 73
     5
 74
     0
 42
0.000000001
 43
0.0000000001
 40
0.3869271087685496
 40
0.3869271087685496
 40
0.3869271087685496
 40
0.3869271087685496
 40
0.5
 40
0.7799073203820949
 40
0.7799073203820949
 40
0.7799073203820949
 40
0.7799073203820949
 10
699.3524207515855
 20
1783.925886807967
 30
0.0
 10
699.2885793012134
 20
1783.738570780126
 30
0.0
 10
699.0586084850426
 20
1783.114718131588
 30
0.0
 10
698.7069139913733
 20
1782.684315742033
 30
0.0
 10
698.4434194776357
 20
1782.40004498217
 30
0.0
  0
SPLINE
  5
1A9
330
13B
100
AcDbEntity
  8
P-SANR-FIXT
100
AcDbSpline
210
0.0
220
0.0
230
1.0
 70
     8
 71
     3
 72
     8
 73
     4
 74
     0
 42
0.000000001
 43
0.0000000001
 40
0.9062560105510321
 40
0.9062560105510321
 40
0.9062560105510321
 40
0.9062560105510321
 40
1.0
 40
1.0
 40
1.0
 40
1.0
 10
698.1264660137907
 20
1781.968920608647
 30
0.0
 10
698.0294704723112
 20
1781.885211429795
 30
0.0
 10
697.9278752772006
 20
1781.80700271621
 30
0.0
 10
697.8214616144654
 20
1781.733944942609
 30
0.0
  0
SPLINE
  5
1AA
330
13B
100
AcDbEntity
  8
P-SANR-FIXT
100
AcDbSpline
210
0.0
220
0.0
230
1.0
 70
     8
 71
     3
 72
     9
 73
     5
 74
     0
 42
0.000000001
 43
0.0000000001
 40
0.0
 40
0.0
 40
0.0
 40
0.0
 40
0.5
 40
0.6130728912314034
 40
0.6130728912314034
 40
0.6130728912314034
 40
0.6130728912314034
 10
697.8214616144652
 20
1830.757812517495
 30
0.0
 10
698.3890375377897
 20
1830.368146075787
 30
0.0
 10
698.9168929447735
 20
1829.710685656737
 30
0.0
 10
699.2885793012134
 20
1828.753186679977
 30
0.0
 10
699.3524207515855
 20
1828.565870652137
 30
0.0
  0
SPLINE
  5
1AB
330
13B
100
AcDbEntity
  8
P-SANR-FIXT
100
AcDbSpline
210
0.0
220
0.0
230
1.0
 70
     8
 71
     3
 72
     8
 73
     4
 74
     0
 42
0.000000001
 43
0.0000000001
 40
0.6897080671810489
 40
0.6897080671810489
 40
0.6897080671810489
 40
0.6897080671810489
 40
0.8198863871757783
 40
0.8198863871757783
 40
0.8198863871757783
 40
0.8198863871757783
 10
699.4759217048819
 20
1828.170080349466
 30
0.0
 10
699.5423871826038
 20
1827.937429930524
 30
0.0
 10
699.5983291438252
 20
1827.671550810464
 30
0.0
 10
699.6507311717578
 20
1827.395023668017
 30
0.0
  0
LWPOLYLINE
  5
1AC
330
13B
100
AcDbEntity
  8
P-SANR-FIXT
100
AcDbPolyline
 90
        3
 70
   128
 43
0.0
 10
713.2872633834068
 20
1808.813661970268
 10
713.1498162006798
 20
1807.531404939445
 10
713.1039616026741
 20
1806.245878730052
  0
ELLIPSE
  5
1AD
330
13B
100
AcDbEntity
  8
P-SANR-FIXT
100
AcDbEllipse
 10
700.1404802546703
 20
1806.245878730052
 30
0.0
 11
0.0
 21
29.25000000000031
 31
0.0
210
0.0
220
0.0
230
0.9999999999999998
 40
0.7071067811865485
 41
2.665710403929356
 42
3.652634544409973
  0
ELLIPSE
  5
1AE
330
13B
100
AcDbEntity
  8
P-SANR-FIXT
100
AcDbEllipse
 10
700.1404802546702
 20
1806.245878730052
 30
0.0
 11
0.0
 21
29.25000000000018
 31
0.0
210
0.0
220
0.0
230
1.0
 40
0.7071067811865536
 41
5.772143416359398
 42
6.75906755684003
  0
ELLIPSE
  5
1AF
330
13B
100
AcDbEntity
  8
P-SANR-FIXT
100
AcDbEllipse
 10
702.7921306841199
 20
1806.245878730052
 30
0.0
 11
0.0
 21
25.49999999999996
 31
0.0
210
0.0
220
0.0
230
1.0
 40
0.7071067811865508
 41
2.862305906804598
 42
3.141592653589788
  0
SPLINE
  5
1B0
330
13B
100
AcDbEntity
  8
P-SANR-FIXT
100
AcDbSpline
210
0.0
220
0.0
230
1.0
 70
     8
 71
     3
 72
    10
 73
     6
 74
     0
 42
0.000000001
 43
0.0000000001
 40
-0.8333333333333332
 40
-0.8333333333333332
 40
-0.8333333333333332
 40
-0.8333333333333332
 40
-0.75
 40
-0.6666666666666666
 40
-0.5
 40
-0.5
 40
-0.5
 40
-0.5
 10
697.2415728900431
 20
1781.285207585302
 30
0.0
 10
697.140487375129
 20
1781.216436129967
 30
0.0
 10
696.9341083905021
 20
1781.085264214219
 30
0.0
 10
696.5072753803569
 20
1780.847684454213
 30
0.0
 10
696.167642568477
 20
1780.703266462596
 30
0.0
 10
695.9373086733076
 20
1780.614593965889
 30
0.0
  0
SPLINE
  5
1B1
330
13B
100
AcDbEntity
  8
P-SANR-FIXT
100
AcDbSpline
210
0.0
220
0.0
230
1.0
 70
     8
 71
     3
 72
     8
 73
     4
 74
     0
 42
0.000000001
 43
0.0000000001
 40
-0.3333333333333333
 40
-0.3333333333333333
 40
-0.3333333333333333
 40
-0.3333333333333333
 40
-0.1666666666666667
 40
-0.1666666666666667
 40
-0.1666666666666667
 40
-0.1666666666666667
 10
695.2412682457267
 20
1780.40552276713
 30
0.0
 10
695.00883731821
 20
1780.350737099228
 30
0.0
 10
694.7798300820705
 20
1780.323933386106
 30
0.0
 10
694.5515765955628
 20
1780.304272441885
 30
0.0
  0
SPLINE
  5
1B2
330
13B
100
AcDbEntity
  8
P-SANR-FIXT
100
AcDbSpline
210
0.0
220
0.0
230
1.0
 70
     8
 71
     3
 72
     8
 73
     4
 74
     0
 42
0.000000001
 43
0.0000000001
 40
-0.8333333333333333
 40
-0.8333333333333333
 40
-0.8333333333333333
 40
-0.8333333333333333
 40
-0.6666666666666666
 40
-0.6666666666666666
 40
-0.6666666666666666
 40
-0.6666666666666666
 10
694.5480892681152
 20
1832.207145962439
 30
0.0
 10
694.7775051971055
 20
1832.180931370145
 30
0.0
 10
695.0088939131287
 20
1832.1411447672
 30
0.0
 10
695.2412682457267
 20
1832.086234692974
 30
0.0
  0
SPLINE
  5
1B3
330
13B
100
AcDbEntity
  8
P-SANR-FIXT
100
AcDbSpline
210
0.0
220
0.0
230
1.0
 70
     8
 71
     3
 72
    10
 73
     6
 74
     0
 42
0.000000001
 43
0.0000000001
 40
-0.5
 40
-0.5
 40
-0.5
 40
-0.5
 40
-0.3333333333333333
 40
-0.25
 40
-0.1666666666666666
 40
-0.1666666666666666
 40
-0.1666666666666666
 40
-0.1666666666666666
 10
695.9373086733076
 20
1831.877163494215
 30
0.0
 10
696.1673884394429
 20
1831.792538289889
 30
0.0
 10
696.5077877707759
 20
1831.643746530992
 30
0.0
 10
696.9333391161478
 20
1831.405688273257
 30
0.0
 10
697.1421543658045
 20
1831.277496999157
 30
0.0
 10
697.241572890043
 20
1831.206549874803
 30
0.0
  0
ELLIPSE
  5
1B4
330
13B
100
AcDbEntity
  8
P-SANR-FIXT
100
AcDbEllipse
 10
702.7921306841199
 20
1806.245878730052
 30
0.0
 11
0.0
 21
25.50000000000023
 31
0.0
210
0.0
220
0.0
230
1.0
 40
0.7071067811865492
 41
0.0000000000000016
 42
0.279286746785196
  0
ELLIPSE
  5
1B5
330
13B
100
AcDbEntity
  8
P-SANR-FIXT
100
AcDbEllipse
 10
662.3102674611901
 20
1806.245878730052
 30
0.0
 11
0.0
 21
29.24999999999997
 31
0.0
210
0.0
220
0.0
230
0.9999999999999998
 40
0.7071067811865503
 41
2.666018742059965
 42
3.141592653589782
  0
ELLIPSE
  5
1B6
330
13B
100
AcDbEntity
  8
P-SANR-FIXT
100
AcDbEllipse
 10
662.3102674611901
 20
1806.245878730052
 30
0.0
 11
0.0
 21
29.25000000000023
 31
0.0
210
0.0
220
0.0
230
1.0
 40
0.7071067811865448
 41
0.0000000000000016
 42
0.4755739115297926
  0
LINE
  5
1B7
330
13B
100
AcDbEntity
  8
P-SANR-FIXT
100
AcDbLine
 10
678.5977241280088
 20
1796.773694655801
 30
0.0
 11
678.6009800640861
 21
1796.785994713169
 31
0.0
  0
LINE
  5
1B8
330
13B
100
AcDbEntity
  8
P-SANR-FIXT
100
AcDbLine
 10
678.6009800640861
 20
1815.705762746935
 30
0.0
 11
678.5977241280088
 21
1815.718062804303
 31
0.0
  0
LINE
  5
1B9
330
13B
100
AcDbEntity
  8
P-SANR-FIXT
100
AcDbLine
 10
789.8664074431885
 20
1797.240505368544
 30
0.0
 11
789.8664074431885
 21
1778.745878730052
 31
0.0
  0
LINE
  5
1BA
330
13B
100
AcDbEntity
  8
P-SANR-FIXT
100
AcDbLine
 10
789.8664074431885
 20
1833.745878730052
 30
0.0
 11
789.8664074431885
 21
1815.251252091558
 31
0.0
  0
SPLINE
  5
1BB
330
13B
100
AcDbEntity
  8
P-SANR-FIXT
100
AcDbSpline
210
0.0
220
0.0
230
1.0
 70
     8
 71
     3
 72
     8
 73
     4
 74
     0
 42
0.000000001
 43
0.0000000001
 40
0.037037037037037
 40
0.037037037037037
 40
0.037037037037037
 40
0.037037037037037
 40
0.0403623527943365
 40
0.0403623527943365
 40
0.0403623527943365
 40
0.0403623527943365
 10
747.2905673340029
 20
1805.10701318248
 30
0.0
 10
747.2865507754362
 20
1805.073622502899
 30
0.0
 10
747.2823757237704
 20
1805.040292956951
 30
0.0
 10
747.278041732761
 20
1805.007024249404
 30
0.0
  0
SPLINE
  5
1BC
330
13B
100
AcDbEntity
  8
P-SANR-FIXT
100
AcDbSpline
210
0.0
220
0.0
230
1.0
 70
     8
 71
     3
 72
     8
 73
     4
 74
     0
 42
0.000000001
 43
0.0000000001
 40
0.0740740740740741
 40
0.0740740740740741
 40
0.0740740740740741
 40
0.0740740740740741
 40
0.0819336350497581
 40
0.0819336350497581
 40
0.0819336350497581
 40
0.0819336350497581
 10
747.0967581159375
 20
1804.013650437269
 30
0.0
 10
747.0787892557224
 20
1803.937861912304
 30
0.0
 10
747.0599072265668
 20
1803.862396533904
 30
0.0
 10
747.0401061363827
 20
1803.787250403937
 30
0.0
  0
SPLINE
  5
1BD
330
13B
100
AcDbEntity
  8
P-SANR-FIXT
100
AcDbSpline
210
0.0
220
0.0
230
1.0
 70
     8
 71
     3
 72
     8
 73
     4
 74
     0
 42
0.000000001
 43
0.0000000001
 40
0.1111111111111111
 40
0.1111111111111111
 40
0.1111111111111111
 40
0.1111111111111111
 40
0.1240856656863979
 40
0.1240856656863979
 40
0.1240856656863979
 40
0.1240856656863979
 10
746.7812803630413
 20
1802.96334299942
 30
0.0
 10
746.7371940402259
 20
1802.843116098848
 30
0.0
 10
746.6905435418673
 20
1802.723719757856
 30
0.0
 10
746.6414083873488
 20
1802.60526690048
 30
0.0
  0
SPLINE
  5
1BE
330
13B
100
AcDbEntity
  8
P-SANR-FIXT
100
AcDbSpline
210
0.0
220
0.0
230
1.0
 70
     8
 71
     3
 72
     8
 73
     4
 74
     0
 42
0.000000001
 43
0.0000000001
 40
0.1481481481481481
 40
0.1481481481481481
 40
0.1481481481481481
 40
0.1481481481481481
 40
0.2222222222222222
 40
0.2222222222222222
 40
0.2222222222222222
 40
0.2222222222222222
 10
746.3429009333309
 20
1801.956678033682
 30
0.0
 10
746.0113249438974
 20
1801.302606319195
 30
0.0
 10
745.6035691660176
 20
1800.686113455774
 30
0.0
 10
745.1344313029744
 20
1800.128213393212
 30
0.0
  0
SPLINE
  5
1BF
330
13B
100
AcDbEntity
  8
P-SANR-FIXT
100
AcDbSpline
210
0.0
220
0.0
230
1.0
 70
     8
 71
     3
 72
     8
 73
     4
 74
     0
 42
0.000000001
 43
0.0000000001
 40
0.2503633385886446
 40
0.2503633385886446
 40
0.2503633385886446
 40
0.2503633385886446
 40
0.2592592592592593
 40
0.2592592592592593
 40
0.2592592592592593
 40
0.2592592592592593
 10
744.5736026541312
 20
1799.517893892182
 30
0.0
 10
744.5117971731225
 20
1799.456289414327
 30
0.0
 10
744.4491495956941
 20
1799.395545793817
 30
0.0
 10
744.3856735796363
 20
1799.335668020806
 30
0.0
  0
SPLINE
  5
1C0
330
13B
100
AcDbEntity
  8
P-SANR-FIXT
100
AcDbSpline
210
0.0
220
0.0
230
1.0
 70
     8
 71
     3
 72
     8
 73
     4
 74
     0
 42
0.000000001
 43
0.0000000001
 40
0.2918090358185745
 40
0.2918090358185745
 40
0.2918090358185745
 40
0.2918090358185745
 40
0.2962962962962963
 40
0.2962962962962963
 40
0.2962962962962963
 40
0.2962962962962963
 10
743.6563877607075
 20
1798.713578472442
 30
0.0
 10
743.6214311159448
 20
1798.686656182679
 30
0.0
 10
743.5862852129641
 20
1798.65997525967
 30
0.0
 10
743.5509546228823
 20
1798.633541594129
 30
0.0
  0
SPLINE
  5
1C1
330
13B
100
AcDbEntity
  8
P-SANR-FIXT
100
AcDbSpline
210
0.0
220
0.0
230
1.0
 70
     8
 71
     3
 72
     8
 73
     4
 74
     0
 42
0.000000001
 43
0.0000000001
 40
0.3333333333333333
 40
0.3333333333333333
 40
0.3333333333333333
 40
0.3333333333333333
 40
0.3342627358302146
 40
0.3342627358302146
 40
0.3342627358302146
 40
0.3342627358302146
 10
742.6409423049531
 20
1798.032851465164
 30
0.0
 10
742.6330576663026
 20
1798.028305026603
 30
0.0
 10
742.6251667233322
 20
1798.023771280865
 30
0.0
 10
742.6172693581191
 20
1798.019250100547
 30
0.0
  0
SPLINE
  5
1C2
330
13B
100
AcDbEntity
  8
P-SANR-FIXT
100
AcDbSpline
210
0.0
220
0.0
230
1.0
 70
     8
 71
     3
 72
     8
 73
     4
 74
     0
 42
0.000000001
 43
0.0000000001
 40
0.3703703703703703
 40
0.3703703703703703
 40
0.3703703703703703
 40
0.3703703703703703
 40
0.3760662601829407
 40
0.3760662601829407
 40
0.3760662601829407
 40
0.3760662601829407
 10
741.6611583052858
 20
1797.54198287054
 30
0.0
 10
741.6088133894456
 20
1797.519236712036
 30
0.0
 10
741.5561803789083
 20
1797.496873212219
 30
0.0
 10
741.5033091404912
 20
1797.474922479161
 30
0.0
  0
SPLINE
  5
1C3
330
13B
100
AcDbEntity
  8
P-SANR-FIXT
100
AcDbSpline
210
0.0
220
0.0
230
1.0
 70
     8
 71
     3
 72
     8
 73
     4
 74
     0
 42
0.000000001
 43
0.0000000001
 40
0.4074074074074074
 40
0.4074074074074074
 40
0.4074074074074074
 40
0.4074074074074074
 40
0.4173665121580603
 40
0.4173665121580603
 40
0.4173665121580603
 40
0.4173665121580603
 10
740.615619415887
 20
1797.154320562359
 30
0.0
 10
740.5203706350826
 20
1797.125066055433
 30
0.0
 10
740.4247694408211
 20
1797.097359172669
 30
0.0
 10
740.3288334183393
 20
1797.071242149019
 30
0.0
  0
SPLINE
  5
1C4
330
13B
100
AcDbEntity
  8
P-SANR-FIXT
100
AcDbSpline
210
0.0
220
0.0
230
1.0
 70
     8
 71
     3
 72
    11
 73
     7
 74
     0
 42
0.000000001
 43
0.0000000001
 40
0.4444444444444445
 40
0.4444444444444445
 40
0.4444444444444445
 40
0.4444444444444445
 40
0.4791666666666666
 40
0.5138888888888889
 40
0.5486111111111111
 40
0.5555555555555556
 40
0.5555555555555556
 40
0.5555555555555556
 40
0.5555555555555556
 10
739.5392363450516
 20
1796.894320385846
 30
0.0
 10
739.1988624954234
 20
1796.834494279001
 30
0.0
 10
738.5111373983418
 20
1796.756285099789
 30
0.0
 10
737.4387089647013
 20
1796.74475001177
 30
0.0
 10
736.6708195990942
 20
1796.815798315295
 30
0.0
 10
736.2627015361107
 20
1796.882467194892
 30
0.0
 10
736.1949203296558
 20
1796.894364073717
 30
0.0
  0
SPLINE
  5
1C5
330
13B
100
AcDbEntity
  8
P-SANR-FIXT
100
AcDbSpline
210
0.0
220
0.0
230
1.0
 70
     8
 71
     3
 72
     9
 73
     5
 74
     0
 42
0.000000001
 43
0.0000000001
 40
0.5827084272144204
 40
0.5827084272144204
 40
0.5827084272144204
 40
0.5827084272144204
 40
0.5833333333333333
 40
0.5925925925925926
 40
0.5925925925925926
 40
0.5925925925925926
 40
0.5925925925925926
 10
735.4072192427816
 20
1797.070533959158
 30
0.0
 10
735.4012054086955
 20
1797.072170691454
 30
0.0
 10
735.3060847858121
 20
1797.098164319602
 30
0.0
 10
735.2109662553367
 20
1797.125831201206
 30
0.0
 10
735.122023685502
 20
1797.153129900839
 30
0.0
  0
SPLINE
  5
1C6
330
13B
100
AcDbEntity
  8
P-SANR-FIXT
100
AcDbSpline
210
0.0
220
0.0
230
1.0
 70
     8
 71
     3
 72
     8
 73
     4
 74
     0
 42
0.000000001
 43
0.0000000001
 40
0.623979190998648
 40
0.623979190998648
 40
0.623979190998648
 40
0.623979190998648
 40
0.6296296296296296
 40
0.6296296296296296
 40
0.6296296296296296
 40
0.6296296296296296
 10
734.2294077627736
 20
1797.474972143721
 30
0.0
 10
734.176927079872
 20
1797.496747625963
 30
0.0
 10
734.1246932385324
 20
1797.518929807791
 30
0.0
 10
734.0727328398092
 20
1797.541505161795
 30
0.0
  0
SPLINE
  5
1C7
330
13B
100
AcDbEntity
  8
P-SANR-FIXT
100
AcDbSpline
210
0.0
220
0.0
230
1.0
 70
     8
 71
     3
 72
     8
 73
     4
 74
     0
 42
0.000000001
 43
0.0000000001
 40
0.66576876245363
 40
0.66576876245363
 40
0.66576876245363
 40
0.66576876245363
 40
0.6666666666666666
 40
0.6666666666666666
 40
0.6666666666666666
 40
0.6666666666666666
 10
733.1151987438361
 20
1798.019663045706
 30
0.0
 10
733.1076093650692
 20
1798.023990235029
 30
0.0
 10
733.1000280233799
 20
1798.028327880286
 30
0.0
 10
733.092454528116
 20
1798.032676061884
 30
0.0
  0
SPLINE
  5
1C8
330
13B
100
AcDbEntity
  8
P-SANR-FIXT
100
AcDbSpline
210
0.0
220
0.0
230
1.0
 70
     8
 71
     3
 72
     8
 73
     4
 74
     0
 42
0.000000001
 43
0.0000000001
 40
0.7037037037037035
 40
0.7037037037037035
 40
0.7037037037037035
 40
0.7037037037037035
 40
0.7082584884778967
 40
0.7082584884778967
 40
0.7082584884778967
 40
0.7082584884778967
 10
732.1854446782521
 20
1798.62999570386
 30
0.0
 10
732.1494336666686
 20
1798.656961922017
 30
0.0
 10
732.1135527917569
 20
1798.684176305091
 30
0.0
 10
732.0778497123239
 20
1798.711638852972
 30
0.0
  0
SPLINE
  5
1C9
330
13B
100
AcDbEntity
  8
P-SANR-FIXT
100
AcDbSpline
210
0.0
220
0.0
230
1.0
 70
     8
 71
     3
 72
     8
 73
     4
 74
     0
 42
0.000000001
 43
0.0000000001
 40
0.7407407407407405
 40
0.7407407407407405
 40
0.7407407407407405
 40
0.7407407407407405
 40
0.7497465077631267
 40
0.7497465077631267
 40
0.7497465077631267
 40
0.7497465077631267
 10
731.3488238804515
 20
1799.333585507614
 30
0.0
 10
731.2847329281514
 20
1799.39398564193
 30
0.0
 10
731.2219627674611
 20
1799.455421609241
 30
0.0
 10
731.1602858905364
 20
1799.517798882134
 30
0.0
  0
SPLINE
  5
1CA
330
13B
100
AcDbEntity
  8
P-SANR-FIXT
100
AcDbSpline
210
0.0
220
0.0
230
1.0
 70
     8
 71
     3
 72
     9
 73
     5
 74
     0
 42
0.000000001
 43
0.0000000001
 40
0.7777777777777775
 40
0.7777777777777775
 40
0.7777777777777775
 40
0.7777777777777775
 40
0.7916666666666668
 40
0.8518518518518513
 40
0.8518518518518513
 40
0.8518518518518513
 40
0.8518518518518513
 10
730.6036302033683
 20
1800.121787012775
 30
0.0
 10
730.5160782241483
 20
1800.225860074043
 30
0.0
 10
730.0647304487324
 20
1800.794051930054
 30
0.0
 10
729.6219108732214
 20
1801.407278927973
 30
0.0
 10
729.3750559083614
 20
1801.949484313369
 30
0.0
  0
SPLINE
  5
1CB
330
13B
100
AcDbEntity
  8
P-SANR-FIXT
100
AcDbSpline
210
0.0
220
0.0
230
1.0
 70
     8
 71
     3
 72
     8
 73
     4
 74
     0
 42
0.000000001
 43
0.0000000001
 40
0.8759535741918499
 40
0.8759535741918499
 40
0.8759535741918499
 40
0.8759535741918499
 40
0.8888888888888883
 40
0.8888888888888883
 40
0.8888888888888883
 40
0.8888888888888883
 10
729.0913684484325
 20
1802.605515850881
 30
0.0
 10
729.0425135787917
 20
1802.723473137594
 30
0.0
 10
729.0005347246753
 20
1802.843931629466
 30
0.0
 10
728.9640525239904
 20
1802.966388736323
 30
0.0
  0
SPLINE
  5
1CC
330
13B
100
AcDbEntity
  8
P-SANR-FIXT
100
AcDbSpline
210
0.0
220
0.0
230
1.0
 70
     8
 71
     3
 72
     8
 73
     4
 74
     0
 42
0.000000001
 43
0.0000000001
 40
0.9180807706842777
 40
0.9180807706842777
 40
0.9180807706842777
 40
0.9180807706842777
 40
0.9259259259259254
 40
0.9259259259259254
 40
0.9259259259259254
 40
0.9259259259259254
 10
728.6937087414019
 20
1803.785993799365
 30
0.0
 10
728.6739317295014
 20
1803.861025223136
 30
0.0
 10
728.6566615469475
 20
1803.936997214873
 30
0.0
 10
728.6414346513167
 20
1804.013735676942
 30
0.0
  0
SPLINE
  5
1CD
330
13B
100
AcDbEntity
  8
P-SANR-FIXT
100
AcDbSpline
210
0.0
220
0.0
230
1.0
 70
     8
 71
     3
 72
     8
 73
     4
 74
     0
 42
0.000000001
 43
0.0000000001
 40
0.9596406818881696
 40
0.9596406818881696
 40
0.9596406818881696
 40
0.9596406818881696
 40
0.9629629629629622
 40
0.9629629629629622
 40
0.9629629629629622
 40
0.9629629629629622
 10
728.4551800069684
 20
1805.006383682566
 30
0.0
 10
728.4508278370942
 20
1805.039653627014
 30
0.0
 10
728.4469227644511
 20
1805.07309654201
 30
0.0
 10
728.443393333219
 20
1805.106684771326
 30
0.0
  0
SPLINE
  5
1CE
330
13B
100
AcDbEntity
  8
P-SANR-FIXT
100
AcDbSpline
210
0.0
220
0.0
230
1.0
 70
     8
 71
     3
 72
     8
 73
     4
 74
     0
 42
0.000000001
 43
0.0000000001
 40
0.037037037037037
 40
0.037037037037037
 40
0.037037037037037
 40
0.037037037037037
 40
0.0403593181118225
 40
0.0403593181118225
 40
0.0403593181118225
 40
0.0403593181118225
 10
728.4420689258143
 20
1807.384767650649
 30
0.0
 10
728.4460787776371
 20
1807.418130201629
 30
0.0
 10
728.450247118493
 20
1807.451431957408
 30
0.0
 10
728.4545744146089
 20
1807.484673233761
 30
0.0
  0
SPLINE
  5
1CF
330
13B
100
AcDbEntity
  8
P-SANR-FIXT
100
AcDbSpline
210
0.0
220
0.0
230
1.0
 70
     8
 71
     3
 72
     8
 73
     4
 74
     0
 42
0.000000001
 43
0.0000000001
 40
0.0740740740740741
 40
0.0740740740740741
 40
0.0740740740740741
 40
0.0740740740740741
 40
0.0819192293157141
 40
0.0819192293157141
 40
0.0819192293157141
 40
0.0819192293157141
 10
728.6359120979469
 20
1808.478322963396
 30
0.0
 10
728.653862073504
 20
1808.553996323658
 30
0.0
 10
728.6727247812422
 20
1808.629350313526
 30
0.0
 10
728.6925063600881
 20
1808.704389090919
 30
0.0
  0
SPLINE
  5
1D0
330
13B
100
AcDbEntity
  8
P-SANR-FIXT
100
AcDbSpline
210
0.0
220
0.0
230
1.0
 70
     8
 71
     3
 72
     8
 73
     4
 74
     0
 42
0.000000001
 43
0.0000000001
 40
0.1111111111111111
 40
0.1111111111111111
 40
0.1111111111111111
 40
0.1111111111111111
 40
0.1240464258081439
 40
0.1240464258081439
 40
0.1240464258081439
 40
0.1240464258081439
 10
728.9518126382318
 20
1809.529169680217
 30
0.0
 10
728.995844320821
 20
1809.649122822028
 30
0.0
 10
729.0424361803775
 20
1809.768261077891
 30
0.0
 10
729.0915056625346
 20
1809.886468605328
 30
0.0
  0
SPLINE
  5
1D1
330
13B
100
AcDbEntity
  8
P-SANR-FIXT
100
AcDbSpline
210
0.0
220
0.0
230
1.0
 70
     8
 71
     3
 72
     8
 73
     4
 74
     0
 42
0.000000001
 43
0.0000000001
 40
0.1481481481481481
 40
0.1481481481481481
 40
0.1481481481481481
 40
0.1481481481481481
 40
0.2222222222222222
 40
0.2222222222222222
 40
0.2222222222222222
 40
0.2222222222222222
 10
729.3910624395508
 20
1810.536776083411
 30
0.0
 10
729.7232895369326
 20
1811.191526854023
 30
0.0
 10
730.1317206413815
 20
1811.808678324243
 30
0.0
 10
730.6008530388346
 20
1812.366476674483
 30
0.0
  0
SPLINE
  5
1D2
330
13B
100
AcDbEntity
  8
P-SANR-FIXT
100
AcDbSpline
210
0.0
220
0.0
230
1.0
 70
     8
 71
     3
 72
     8
 73
     4
 74
     0
 42
0.000000001
 43
0.0000000001
 40
0.2502534922368706
 40
0.2502534922368706
 40
0.2502534922368706
 40
0.2502534922368706
 40
0.2592592592592593
 40
0.2592592592592593
 40
0.2592592592592593
 40
0.2592592592592593
 10
731.1591401729648
 20
1812.974122217132
 30
0.0
 10
731.2216393342049
 20
1813.036442838782
 30
0.0
 10
731.2849964047223
 20
1813.097875261104
 30
0.0
 10
731.3491987496397
 20
1813.158415985206
 30
0.0
  0
SPLINE
  5
1D3
330
13B
100
AcDbEntity
  8
P-SANR-FIXT
100
AcDbSpline
210
0.0
220
0.0
230
1.0
 70
     8
 71
     3
 72
     8
 73
     4
 74
     0
 42
0.000000001
 43
0.0000000001
 40
0.2917415115220965
 40
0.2917415115220965
 40
0.2917415115220965
 40
0.2917415115220965
 40
0.2962962962962963
 40
0.2962962962962963
 40
0.2962962962962963
 40
0.2962962962962963
 10
732.0762119014456
 20
1813.778372404954
 30
0.0
 10
732.1116566159272
 20
1813.805663684785
 30
0.0
 10
732.1472970088694
 20
1813.832706782265
 30
0.0
 10
732.1831285483157
 20
1813.859495744884
 30
0.0
  0
SPLINE
  5
1D4
330
13B
100
AcDbEntity
  8
P-SANR-FIXT
100
AcDbSpline
210
0.0
220
0.0
230
1.0
 70
     8
 71
     3
 72
     8
 73
     4
 74
     0
 42
0.000000001
 43
0.0000000001
 40
0.3333333333333333
 40
0.3333333333333333
 40
0.3333333333333333
 40
0.3333333333333333
 40
0.3342312375463637
 40
0.3342312375463637
 40
0.3342312375463637
 40
0.3342312375463637
 10
733.0926959513943
 20
1814.459384594974
 30
0.0
 10
733.1003133151251
 20
1814.463773278212
 30
0.0
 10
733.1079366750619
 20
1814.468150204267
 30
0.0
 10
733.11556613554
 20
1814.472515486012
 30
0.0
  0
SPLINE
  5
1D5
330
13B
100
AcDbEntity
  8
P-SANR-FIXT
100
AcDbSpline
210
0.0
220
0.0
230
1.0
 70
     8
 71
     3
 72
     8
 73
     4
 74
     0
 42
0.000000001
 43
0.0000000001
 40
0.3703703703703703
 40
0.3703703703703703
 40
0.3703703703703703
 40
0.3703703703703703
 40
0.3760208090013519
 40
0.3760208090013519
 40
0.3760208090013519
 40
0.3760208090013519
 10
734.0729044814886
 20
1814.950117905527
 30
0.0
 10
734.1248683494716
 20
1814.972685471413
 30
0.0
 10
734.1771170780536
 20
1814.994877275912
 30
0.0
 10
734.2296015947965
 20
1815.016663753565
 30
0.0
  0
SPLINE
  5
1D6
330
13B
100
AcDbEntity
  8
P-SANR-FIXT
100
AcDbSpline
210
0.0
220
0.0
230
1.0
 70
     8
 71
     3
 72
     8
 73
     4
 74
     0
 42
0.000000001
 43
0.0000000001
 40
0.4074074074074074
 40
0.4074074074074074
 40
0.4074074074074074
 40
0.4074074074074074
 40
0.4172915727855738
 40
0.4172915727855738
 40
0.4172915727855738
 40
0.4172915727855738
 10
735.1192332842144
 20
1815.337893430143
 30
0.0
 10
735.2138340372215
 20
1815.366938342175
 30
0.0
 10
735.3087798384593
 20
1815.394457715989
 30
0.0
 10
735.4040522752959
 20
1815.420409258804
 30
0.0
  0
SPLINE
  5
1D7
330
13B
100
AcDbEntity
  8
P-SANR-FIXT
100
AcDbSpline
210
0.0
220
0.0
230
1.0
 70
     8
 71
     3
 72
    11
 73
     7
 74
     0
 42
0.000000001
 43
0.0000000001
 40
0.4444444444444445
 40
0.4444444444444445
 40
0.4444444444444445
 40
0.4444444444444445
 40
0.4791666666666666
 40
0.5138888888888889
 40
0.5486111111111111
 40
0.5555555555555556
 40
0.5555555555555556
 40
0.5555555555555556
 40
0.5555555555555556
 10
736.1962365992616
 20
1815.597912164129
 30
0.0
 10
736.5367367124629
 20
1815.657696346005
 30
0.0
 10
737.2245500044669
 20
1815.735701238898
 30
0.0
 10
738.2970064932476
 20
1815.746853280586
 30
0.0
 10
739.0647953836104
 20
1815.675558414099
 30
0.0
 10
739.4727841200221
 20
1815.608827726964
 30
0.0
 10
739.5405415621383
 20
1815.59692243958
 30
0.0
  0
SPLINE
  5
1D8
330
13B
100
AcDbEntity
  8
P-SANR-FIXT
100
AcDbSpline
210
0.0
220
0.0
230
1.0
 70
     8
 71
     3
 72
     9
 73
     5
 74
     0
 42
0.000000001
 43
0.0000000001
 40
0.5826334878419398
 40
0.5826334878419398
 40
0.5826334878419398
 40
0.5826334878419398
 40
0.5833333333333333
 40
0.5925925925925926
 40
0.5925925925925926
 40
0.5925925925925926
 40
0.5925925925925926
 10
740.3256920162231
 20
1815.421321587808
 30
0.0
 10
740.3324226994778
 20
1815.419490814542
 30
0.0
 10
740.4282022580591
 20
1815.393319437071
 30
0.0
 10
740.5239740071973
 20
1815.36545219707
 30
0.0
 10
740.6128503830817
 20
1815.338163688267
 30
0.0
  0
SPLINE
  5
1D9
330
13B
100
AcDbEntity
  8
P-SANR-FIXT
100
AcDbSpline
210
0.0
220
0.0
230
1.0
 70
     8
 71
     3
 72
     8
 73
     4
 74
     0
 42
0.000000001
 43
0.0000000001
 40
0.6239337398170593
 40
0.6239337398170593
 40
0.6239337398170593
 40
0.6239337398170593
 40
0.6296296296296296
 40
0.6296296296296296
 40
0.6296296296296296
 40
0.6296296296296296
 10
741.5034971940136
 20
1815.016960228121
 30
0.0
 10
741.5563641269248
 20
1814.995021265949
 30
0.0
 10
741.608981667135
 20
1814.972668096403
 30
0.0
 10
741.6613229862177
 20
1814.949914301386
 30
0.0
  0
SPLINE
  5
1DA
330
13B
100
AcDbEntity
  8
P-SANR-FIXT
100
AcDbSpline
210
0.0
220
0.0
230
1.0
 70
     8
 71
     3
 72
     8
 73
     4
 74
     0
 42
0.000000001
 43
0.0000000001
 40
0.6657372641697852
 40
0.6657372641697852
 40
0.6657372641697852
 40
0.6657372641697852
 40
0.6666666666666666
 40
0.6666666666666666
 40
0.6666666666666666
 40
0.6666666666666666
 10
742.6176536060411
 20
1814.472070466907
 30
0.0
 10
742.6255095292141
 20
1814.467588760967
 30
0.0
 10
742.6333569280842
 20
1814.463095789992
 30
0.0
 10
742.6411960140999
 20
1814.458591464079
 30
0.0
  0
SPLINE
  5
1DB
330
13B
100
AcDbEntity
  8
P-SANR-FIXT
100
AcDbSpline
210
0.0
220
0.0
230
1.0
 70
     8
 71
     3
 72
     8
 73
     4
 74
     0
 42
0.000000001
 43
0.0000000001
 40
0.7037037037037035
 40
0.7037037037037035
 40
0.7037037037037035
 40
0.7037037037037035
 40
0.7081909641814319
 40
0.7081909641814319
 40
0.7081909641814319
 40
0.7081909641814319
 10
743.5486271082094
 20
1813.860497096455
 30
0.0
 10
743.5841355726807
 20
1813.833887460803
 30
0.0
 10
743.6195187179662
 20
1813.807036174901
 30
0.0
 10
743.6547305989464
 20
1813.779943593775
 30
0.0
  0
SPLINE
  5
1DC
330
13B
100
AcDbEntity
  8
P-SANR-FIXT
100
AcDbSpline
210
0.0
220
0.0
230
1.0
 70
     8
 71
     3
 72
     8
 73
     4
 74
     0
 42
0.000000001
 43
0.0000000001
 40
0.7407407407407405
 40
0.7407407407407405
 40
0.7407407407407405
 40
0.7407407407407405
 40
0.7496366614113552
 40
0.7496366614113552
 40
0.7496366614113552
 40
0.7496366614113552
 10
744.3860367439703
 20
1813.155854848359
 30
0.0
 10
744.4493993311116
 20
1813.09611910831
 30
0.0
 10
744.5114687505748
 20
1813.035377617213
 30
0.0
 10
744.5724634136911
 20
1812.97372248618
 30
0.0
  0
SPLINE
  5
1DD
330
13B
100
AcDbEntity
  8
P-SANR-FIXT
100
AcDbSpline
210
0.0
220
0.0
230
1.0
 70
     8
 71
     3
 72
     9
 73
     5
 74
     0
 42
0.000000001
 43
0.0000000001
 40
0.7777777777777775
 40
0.7777777777777775
 40
0.7777777777777775
 40
0.7777777777777775
 40
0.7916666666666668
 40
0.8518518518518513
 40
0.8518518518518513
 40
0.8518518518518513
 40
0.8518518518518513
 10
745.1316097806657
 20
1812.367076602566
 30
0.0
 10
745.2191639002047
 20
1812.262982599769
 30
0.0
 10
745.6704251552231
 20
1811.694792351986
 30
0.0
 10
746.1123416607112
 20
1811.082449513362
 30
0.0
 10
746.3587324783095
 20
1810.540741351159
 30
0.0
  0
SPLINE
  5
1DE
330
13B
100
AcDbEntity
  8
P-SANR-FIXT
100
AcDbSpline
210
0.0
220
0.0
230
1.0
 70
     8
 71
     3
 72
     8
 73
     4
 74
     0
 42
0.000000001
 43
0.0000000001
 40
0.8759143343136015
 40
0.8759143343136015
 40
0.8759143343136015
 40
0.8759143343136015
 40
0.8888888888888883
 40
0.8888888888888883
 40
0.8888888888888883
 40
0.8888888888888883
 10
746.6414712904994
 20
1809.886333023726
 30
0.0
 10
746.6904091352894
 20
1809.768112827248
 30
0.0
 10
746.732448859369
 20
1809.647360991147
 30
0.0
 10
746.7689778990023
 20
1809.524587500356
 30
0.0
  0
SPLINE
  5
1DF
330
13B
100
AcDbEntity
  8
P-SANR-FIXT
100
AcDbSpline
210
0.0
220
0.0
230
1.0
 70
     8
 71
     3
 72
     8
 73
     4
 74
     0
 42
0.000000001
 43
0.0000000001
 40
0.9180663649502399
 40
0.9180663649502399
 40
0.9180663649502399
 40
0.9180663649502399
 40
0.9259259259259254
 40
0.9259259259259254
 40
0.9259259259259254
 40
0.9259259259259254
 10
747.0389408310794
 20
1808.705839233146
 30
0.0
 10
747.0587394389771
 20
1808.630698511914
 30
0.0
 10
747.0760275380534
 20
1808.554609526854
 30
0.0
 10
747.0912701009021
 20
1808.477748071303
 30
0.0
  0
SPLINE
  5
1E0
330
13B
100
AcDbEntity
  8
P-SANR-FIXT
100
AcDbSpline
210
0.0
220
0.0
230
1.0
 70
     8
 71
     3
 72
     8
 73
     4
 74
     0
 42
0.000000001
 43
0.0000000001
 40
0.9596376472056627
 40
0.9596376472056627
 40
0.9596376472056627
 40
0.9596376472056627
 40
0.9629629629629622
 40
0.9629629629629622
 40
0.9629629629629622
 40
0.9629629629629622
 10
747.2774624160652
 20
1807.48540538573
 30
0.0
 10
747.2818203192982
 20
1807.452109061944
 30
0.0
 10
747.2857310097189
 20
1807.418638937908
 30
0.0
 10
747.289266020197
 20
1807.385022824469
 30
0.0
  0
LINE
  5
1E1
330
13B
100
AcDbEntity
  8
P-SANR-FIXT
100
AcDbLine
 10
751.2786942029173
 20
1785.745878730052
 30
0.0
 11
751.2786942029173
 21
1806.245878730052
 31
0.0
  0
LINE
  5
1E2
330
13B
100
AcDbEntity
  8
P-SANR-FIXT
100
AcDbLine
 10
751.2786942029173
 20
1806.245878730052
 30
0.0
 11
751.2786942029173
 21
1826.745878730052
 31
0.0
  0
LINE
  5
1E3
330
13B
100
AcDbEntity
  8
P-SANR-FIXT
100
AcDbLine
 10
752.8664074431887
 20
1782.995878730053
 30
0.0
 11
752.8664074431887
 21
1806.245878730052
 31
0.0
  0
SPLINE
  5
1E4
330
13B
100
AcDbEntity
  8
P-SANR-FIXT
100
AcDbSpline
210
0.0
220
0.0
230
1.0
 70
     8
 71
     3
 72
     8
 73
     4
 74
     0
 42
0.000000001
 43
0.0000000001
 40
0.2777777777777778
 40
0.2777777777777778
 40
0.2777777777777778
 40
0.2777777777777778
 40
0.3055555555555556
 40
0.3055555555555556
 40
0.3055555555555556
 40
0.3055555555555556
 10
777.9092252903915
 20
1796.674240104398
 30
0.0
 10
777.6361991112194
 20
1796.444490977458
 30
0.0
 10
777.3529322579268
 20
1796.226106016517
 30
0.0
 10
777.0606569323204
 20
1796.020658731508
 30
0.0
  0
SPLINE
  5
1E5
330
13B
100
AcDbEntity
  8
P-SANR-FIXT
100
AcDbSpline
210
0.0
220
0.0
230
1.0
 70
     8
 71
     3
 72
     8
 73
     4
 74
     0
 42
0.000000001
 43
0.0000000001
 40
0.3333333333333333
 40
0.3333333333333333
 40
0.3333333333333333
 40
0.3333333333333333
 40
0.3345492778614646
 40
0.3345492778614646
 40
0.3345492778614646
 40
0.3345492778614646
 10
776.1580377403658
 20
1795.444703414206
 30
0.0
 10
776.1445089440581
 20
1795.436911710813
 30
0.0
 10
776.1309652471408
 20
1795.429147813214
 30
0.0
 10
776.1174063278518
 20
1795.42141133189
 30
0.0
  0
SPLINE
  5
1E6
330
13B
100
AcDbEntity
  8
P-SANR-FIXT
100
AcDbSpline
210
0.0
220
0.0
230
1.0
 70
     8
 71
     3
 72
     8
 73
     4
 74
     0
 42
0.000000001
 43
0.0000000001
 40
0.3611111111111111
 40
0.3611111111111111
 40
0.3611111111111111
 40
0.3611111111111111
 40
0.3888888888888888
 40
0.3888888888888888
 40
0.3888888888888888
 40
0.3888888888888888
 10
775.2036926506554
 20
1794.949597833668
 30
0.0
 10
774.8752439642948
 20
1794.795977905405
 30
0.0
 10
774.5351829435847
 20
1794.652225304646
 30
0.0
 10
774.191010554744
 20
1794.523552540756
 30
0.0
  0
SPLINE
  5
1E7
330
13B
100
AcDbEntity
  8
P-SANR-FIXT
100
AcDbSpline
210
0.0
220
0.0
230
1.0
 70
     8
 71
     3
 72
     8
 73
     4
 74
     0
 42
0.000000001
 43
0.0000000001
 40
0.4166666666666668
 40
0.4166666666666668
 40
0.4166666666666668
 40
0.4166666666666668
 40
0.4177255103600776
 40
0.4177255103600776
 40
0.4177255103600776
 40
0.4177255103600776
 10
773.1464770421679
 20
1794.184126176013
 30
0.0
 10
773.1330564233882
 20
1794.18042256556
 30
0.0
 10
773.1196302921981
 20
1794.176742830964
 30
0.0
 10
773.1061986662007
 20
1794.173087047134
 30
0.0
  0
SPLINE
  5
1E8
330
13B
100
AcDbEntity
  8
P-SANR-FIXT
100
AcDbSpline
210
0.0
220
0.0
230
1.0
 70
     8
 71
     3
 72
     8
 73
     4
 74
     0
 42
0.000000001
 43
0.0000000001
 40
0.4444444444444445
 40
0.4444444444444445
 40
0.4444444444444445
 40
0.4444444444444445
 40
0.4722222222222224
 40
0.4722222222222224
 40
0.4722222222222224
 40
0.4722222222222224
 10
772.0791812092759
 20
1793.943292324742
 30
0.0
 10
771.719833955976
 20
1793.880347927111
 30
0.0
 10
771.3570108324087
 20
1793.835188082938
 30
0.0
 10
770.988608779966
 20
1793.805317052459
 30
0.0
  0
SPLINE
  5
1E9
330
13B
100
AcDbEntity
  8
P-SANR-FIXT
100
AcDbSpline
210
0.0
220
0.0
230
1.0
 70
     8
 71
     3
 72
     9
 73
     5
 74
     0
 42
0.000000001
 43
0.0000000001
 40
0.5277777777777779
 40
0.5277777777777779
 40
0.5277777777777779
 40
0.5277777777777779
 40
0.5486111111111111
 40
0.5555555555555558
 40
0.5555555555555558
 40
0.5555555555555558
 40
0.5555555555555558
 10
768.7474050708312
 20
1793.804915674676
 30
0.0
 10
768.4700411467361
 20
1793.827555632049
 30
0.0
 10
768.1040059057606
 20
1793.869470106549
 30
0.0
 10
767.7448950961055
 20
1793.927815509849
 30
0.0
 10
767.6554666088364
 20
1793.943445408705
 30
0.0
  0
SPLINE
  5
1EA
330
13B
100
AcDbEntity
  8
P-SANR-FIXT
100
AcDbSpline
210
0.0
220
0.0
230
1.0
 70
     8
 71
     3
 72
     8
 73
     4
 74
     0
 42
0.000000001
 43
0.0000000001
 40
0.5823534357647211
 40
0.5823534357647211
 40
0.5823534357647211
 40
0.5823534357647211
 40
0.5833333333333333
 40
0.5833333333333333
 40
0.5833333333333333
 40
0.5833333333333333
 10
766.6309816466109
 20
1794.17196262307
 30
0.0
 10
766.6185670479473
 20
1794.175338990225
 30
0.0
 10
766.6061529289702
 20
1794.178737365255
 30
0.0
 10
766.5937391325257
 20
1794.182157859358
 30
0.0
  0
SPLINE
  5
1EB
330
13B
100
AcDbEntity
  8
P-SANR-FIXT
100
AcDbSpline
210
0.0
220
0.0
230
1.0
 70
     8
 71
     3
 72
     9
 73
     5
 74
     0
 42
0.000000001
 43
0.0000000001
 40
0.6111111111111113
 40
0.6111111111111113
 40
0.6111111111111113
 40
0.6111111111111113
 40
0.6180555555555555
 40
0.6388888888888891
 40
0.6388888888888891
 40
0.6388888888888891
 40
0.6388888888888891
 10
765.5444586077028
 20
1794.522803463081
 30
0.0
 10
765.4580354691871
 20
1794.555048829431
 30
0.0
 10
765.113857180163
 20
1794.687611635394
 30
0.0
 10
764.7769874800326
 20
1794.833497607619
 30
0.0
 10
764.5301000160216
 20
1794.949288424076
 30
0.0
  0
SPLINE
  5
1EC
330
13B
100
AcDbEntity
  8
P-SANR-FIXT
100
AcDbSpline
210
0.0
220
0.0
230
1.0
 70
     8
 71
     3
 72
     8
 73
     4
 74
     0
 42
0.000000001
 43
0.0000000001
 40
0.6654835547697315
 40
0.6654835547697315
 40
0.6654835547697315
 40
0.6654835547697315
 40
0.6666666666666669
 40
0.6666666666666669
 40
0.6666666666666669
 40
0.6666666666666669
 10
763.6149562531304
 20
1795.422012474421
 30
0.0
 10
763.6018276629905
 20
1795.429466092796
 30
0.0
 10
763.5887178874777
 20
1795.436942683551
 30
0.0
 10
763.5756263769795
 20
1795.444442530055
 30
0.0
  0
SPLINE
  5
1ED
330
13B
100
AcDbEntity
  8
P-SANR-FIXT
100
AcDbSpline
210
0.0
220
0.0
230
1.0
 70
     8
 71
     3
 72
     8
 73
     4
 74
     0
 42
0.000000001
 43
0.0000000001
 40
0.6944444444444447
 40
0.6944444444444447
 40
0.6944444444444447
 40
0.6944444444444447
 40
0.7222222222222223
 40
0.7222222222222223
 40
0.7222222222222223
 40
0.7222222222222223
 10
762.6773972462437
 20
1796.015106403983
 30
0.0
 10
762.3848989061152
 20
1796.22071608109
 30
0.0
 10
762.0977027978243
 20
1796.440398921101
 30
0.0
 10
761.8257037685634
 20
1796.671968722462
 30
0.0
  0
LINE
  5
1EE
330
13B
100
AcDbEntity
  8
P-SANR-FIXT
100
AcDbLine
 10
752.8664074431887
 20
1806.245878730052
 30
0.0
 11
752.8664074431887
 21
1829.495878730052
 31
0.0
  0
SPLINE
  5
1EF
330
13B
100
AcDbEntity
  8
P-SANR-FIXT
100
AcDbSpline
210
0.0
220
0.0
230
1.0
 70
     8
 71
     3
 72
     8
 73
     4
 74
     0
 42
0.000000001
 43
0.0000000001
 40
0.0277777777777778
 40
0.0277777777777778
 40
0.0277777777777778
 40
0.0277777777777778
 40
0.0555555555555556
 40
0.0555555555555556
 40
0.0555555555555556
 40
0.0555555555555556
 10
757.4288774703898
 20
1807.381494817044
 30
0.0
 10
757.4639558080108
 20
1807.754277229895
 30
0.0
 10
757.5134198633036
 20
1808.121336615197
 30
0.0
 10
757.5776618036143
 20
1808.482772738645
 30
0.0
  0
SPLINE
  5
1F0
330
13B
100
AcDbEntity
  8
P-SANR-FIXT
100
AcDbSpline
210
0.0
220
0.0
230
1.0
 70
     8
 71
     3
 72
     8
 73
     4
 74
     0
 42
0.000000001
 43
0.0000000001
 40
0.0813867880661398
 40
0.0813867880661398
 40
0.0813867880661398
 40
0.0813867880661398
 40
0.0833333333333333
 40
0.0833333333333333
 40
0.0833333333333333
 40
0.0833333333333333
 10
757.7955355489373
 20
1809.476589440255
 30
0.0
 10
757.801987110938
 20
1809.50119046971
 30
0.0
 10
757.8085130319548
 20
1809.525764341188
 30
0.0
 10
757.8151134469379
 20
1809.55031108902
 30
0.0
  0
SPLINE
  5
1F1
330
13B
100
AcDbEntity
  8
P-SANR-FIXT
100
AcDbSpline
210
0.0
220
0.0
230
1.0
 70
     8
 71
     3
 72
     8
 73
     4
 74
     0
 42
0.000000001
 43
0.0000000001
 40
0.1111111111111111
 40
0.1111111111111111
 40
0.1111111111111111
 40
0.1111111111111111
 40
0.1388888888888889
 40
0.1388888888888889
 40
0.1388888888888889
 40
0.1388888888888889
 10
758.1435854044597
 20
1810.584708462629
 30
0.0
 10
758.2685075542313
 20
1810.924050601509
 30
0.0
 10
758.4089919236999
 20
1811.257969009892
 30
0.0
 10
758.5638620108343
 20
1811.585091186552
 30
0.0
  0
SPLINE
  5
1F2
330
13B
100
AcDbEntity
  8
P-SANR-FIXT
100
AcDbSpline
210
0.0
220
0.0
230
1.0
 70
     8
 71
     3
 72
     8
 73
     4
 74
     0
 42
0.000000001
 43
0.0000000001
 40
0.1650901557045223
 40
0.1650901557045223
 40
0.1650901557045223
 40
0.1650901557045223
 40
0.1666666666666667
 40
0.1666666666666667
 40
0.1666666666666667
 40
0.1666666666666667
 10
759.0395137061242
 20
1812.491468954737
 30
0.0
 10
759.04978408744
 20
1812.509237621413
 30
0.0
 10
759.0600972315248
 20
1812.526980227005
 30
0.0
 10
759.0704529233026
 20
1812.544696520606
 30
0.0
  0
SPLINE
  5
1F3
330
13B
100
AcDbEntity
  8
P-SANR-FIXT
100
AcDbSpline
210
0.0
220
0.0
230
1.0
 70
     8
 71
     3
 72
     8
 73
     4
 74
     0
 42
0.000000001
 43
0.0000000001
 40
0.1944444444444444
 40
0.1944444444444444
 40
0.1944444444444444
 40
0.1944444444444444
 40
0.2222222222222222
 40
0.2222222222222222
 40
0.2222222222222222
 40
0.2222222222222222
 10
759.6562991294912
 20
1813.455289456533
 30
0.0
 10
759.864006079151
 20
1813.749736701326
 30
0.0
 10
760.0837457423453
 20
1814.034642711698
 30
0.0
 10
760.3143416171739
 20
1814.308634986785
 30
0.0
  0
SPLINE
  5
1F4
330
13B
100
AcDbEntity
  8
P-SANR-FIXT
100
AcDbSpline
210
0.0
220
0.0
230
1.0
 70
     8
 71
     3
 72
     8
 73
     4
 74
     0
 42
0.000000001
 43
0.0000000001
 40
0.2777777777777778
 40
0.2777777777777778
 40
0.2777777777777778
 40
0.2777777777777778
 40
0.3055555555555556
 40
0.3055555555555556
 40
0.3055555555555556
 40
0.3055555555555556
 10
761.8257037685634
 20
1815.819788737643
 30
0.0
 10
762.0984806716192
 20
1816.049208534312
 30
0.0
 10
762.3814918766054
 20
1816.267255826028
 30
0.0
 10
762.6735765252122
 20
1816.472413701528
 30
0.0
  0
SPLINE
  5
1F5
330
13B
100
AcDbEntity
  8
P-SANR-FIXT
100
AcDbSpline
210
0.0
220
0.0
230
1.0
 70
     8
 71
     3
 72
     8
 73
     4
 74
     0
 42
0.000000001
 43
0.0000000001
 40
0.3333333333333333
 40
0.3333333333333333
 40
0.3333333333333333
 40
0.3333333333333333
 40
0.3345164452302686
 40
0.3345164452302686
 40
0.3345164452302686
 40
0.3345164452302686
 10
763.5758899435849
 20
1817.047702168119
 30
0.0
 10
763.5890538905693
 20
1817.055277676951
 30
0.0
 10
763.6022321916278
 20
1817.062827051548
 30
0.0
 10
763.6154251374665
 20
1817.07035064514
 30
0.0
  0
SPLINE
  5
1F6
330
13B
100
AcDbEntity
  8
P-SANR-FIXT
100
AcDbSpline
210
0.0
220
0.0
230
1.0
 70
     8
 71
     3
 72
     8
 73
     4
 74
     0
 42
0.000000001
 43
0.0000000001
 40
0.3611111111111111
 40
0.3611111111111111
 40
0.3611111111111111
 40
0.3611111111111111
 40
0.3888888888888888
 40
0.3888888888888888
 40
0.3888888888888888
 40
0.3888888888888888
 10
764.530602168522
 20
1817.542641240344
 30
0.0
 10
764.8592604570811
 20
1817.696262384719
 30
0.0
 10
765.1995937582618
 20
1817.840048850719
 30
0.0
 10
765.5440394858754
 20
1817.968761777959
 30
0.0
  0
SPLINE
  5
1F7
330
13B
100
AcDbEntity
  8
P-SANR-FIXT
100
AcDbSpline
210
0.0
220
0.0
230
1.0
 70
     8
 71
     3
 72
     8
 73
     4
 74
     0
 42
0.000000001
 43
0.0000000001
 40
0.4166666666666668
 40
0.4166666666666668
 40
0.4166666666666668
 40
0.4166666666666668
 40
0.4176465642352792
 40
0.4176465642352792
 40
0.4176465642352792
 40
0.4176465642352792
 10
766.5893607873428
 20
1818.308299325004
 30
0.0
 10
766.6017892489565
 20
1818.311727664971
 30
0.0
 10
766.6142223888884
 20
1818.315135529407
 30
0.0
 10
766.6266601916325
 20
1818.318522857702
 30
0.0
  0
SPLINE
  5
1F8
330
13B
100
AcDbEntity
  8
P-SANR-FIXT
100
AcDbSpline
210
0.0
220
0.0
230
1.0
 70
     8
 71
     3
 72
     8
 73
     4
 74
     0
 42
0.000000001
 43
0.0000000001
 40
0.4444444444444445
 40
0.4444444444444445
 40
0.4444444444444445
 40
0.4444444444444445
 40
0.4722222222222224
 40
0.4722222222222224
 40
0.4722222222222224
 40
0.4722222222222224
 10
767.6572383453543
 20
1818.549112934812
 30
0.0
 10
768.0167215615695
 20
1818.612009879949
 30
0.0
 10
768.3796109018607
 20
1818.657072165687
 30
0.0
 10
768.7480528197852
 20
1818.686826111567
 30
0.0
  0
SPLINE
  5
1F9
330
13B
100
AcDbEntity
  8
P-SANR-FIXT
100
AcDbSpline
210
0.0
220
0.0
230
1.0
 70
     8
 71
     3
 72
     8
 73
     4
 74
     0
 42
0.000000001
 43
0.0000000001
 40
0.6944444444444447
 40
0.6944444444444447
 40
0.6944444444444447
 40
0.6944444444444447
 40
0.7222222222222223
 40
0.7222222222222223
 40
0.7222222222222223
 40
0.7222222222222223
 10
777.0568179698872
 20
1816.475360333451
 30
0.0
 10
777.3495076273555
 20
1816.269459574819
 30
0.0
 10
777.6369774960459
 20
1816.049416896652
 30
0.0
 10
777.9092252903915
 20
1815.817517355707
 30
0.0
  0
LINE
  5
1FA
330
13B
100
AcDbEntity
  8
P-SANR-FIXT
100
AcDbLine
 10
785.0126687991326
 20
1782.995878730053
 30
0.0
 11
785.0126687991326
 21
1797.244179389961
 31
0.0
  0
LINE
  5
1FB
330
13B
100
AcDbEntity
  8
P-SANR-FIXT
100
AcDbLine
 10
785.0126687991326
 20
1815.247578070142
 30
0.0
 11
785.0126687991326
 21
1829.495878730052
 31
0.0
  0
LINE
  5
1FC
330
13B
100
AcDbEntity
  8
P-SANR-FIXT
100
AcDbLine
 10
787.4664074431885
 20
1778.745878730052
 30
0.0
 11
787.4664074431885
 21
1797.240505368544
 31
0.0
  0
LINE
  5
1FD
330
13B
100
AcDbEntity
  8
P-SANR-FIXT
100
AcDbLine
 10
787.4664074431885
 20
1815.251252091558
 30
0.0
 11
787.4664074431885
 21
1833.745878730052
 31
0.0
  0
SPLINE
  5
1FE
330
13B
100
AcDbEntity
  8
P-SANR-FIXT
100
AcDbSpline
210
0.0
220
0.0
230
1.0
 70
     8
 71
     3
 72
     8
 73
     4
 74
     0
 42
0.000000001
 43
0.0000000001
 40
0.037037037037037
 40
0.037037037037037
 40
0.037037037037037
 40
0.037037037037037
 40
0.0405821352527029
 40
0.0405821352527029
 40
0.0405821352527029
 40
0.0405821352527029
 10
687.2926873043626
 20
1805.112961843902
 30
0.0
 10
687.2884614538906
 20
1805.07755000757
 30
0.0
 10
687.2840546069701
 20
1805.042206476005
 30
0.0
 10
687.2794662909337
 20
1805.006930664536
 30
0.0
  0
SPLINE
  5
1FF
330
13B
100
AcDbEntity
  8
P-SANR-FIXT
100
AcDbSpline
210
0.0
220
0.0
230
1.0
 70
     8
 71
     3
 72
     8
 73
     4
 74
     0
 42
0.000000001
 43
0.0000000001
 40
0.0740740740740741
 40
0.0740740740740741
 40
0.0740740740740741
 40
0.0740740740740741
 40
0.082350030732787
 40
0.082350030732787
 40
0.082350030732787
 40
0.082350030732787
 10
687.100434722801
 20
1804.024776932439
 30
0.0
 10
687.0816204027874
 20
1803.945291574515
 30
0.0
 10
687.0617927780716
 20
1803.866145174659
 30
0.0
 10
687.0409458351713
 20
1803.787330294407
 30
0.0
  0
SPLINE
  5
200
330
13B
100
AcDbEntity
  8
P-SANR-FIXT
100
AcDbSpline
210
0.0
220
0.0
230
1.0
 70
     8
 71
     3
 72
     8
 73
     4
 74
     0
 42
0.000000001
 43
0.0000000001
 40
0.1111111111111111
 40
0.1111111111111111
 40
0.1111111111111111
 40
0.1111111111111111
 40
0.1245923884736833
 40
0.1245923884736833
 40
0.1245923884736833
 40
0.1245923884736833
 10
686.7864157679742
 20
1802.977323776291
 30
0.0
 10
686.7407975376553
 20
1802.852543955799
 30
0.0
 10
686.692419050725
 20
1802.728575240175
 30
0.0
 10
686.6413582875784
 20
1802.605555242471
 30
0.0
  0
SPLINE
  5
201
330
13B
100
AcDbEntity
  8
P-SANR-FIXT
100
AcDbSpline
210
0.0
220
0.0
230
1.0
 70
     8
 71
     3
 72
     8
 73
     4
 74
     0
 42
0.000000001
 43
0.0000000001
 40
0.1481481481481481
 40
0.1481481481481481
 40
0.1481481481481481
 40
0.1481481481481481
 40
0.2222222222222222
 40
0.2222222222222222
 40
0.2222222222222222
 40
0.2222222222222222
 10
686.3495524630389
 20
1801.970122335415
 30
0.0
 10
686.0187994455032
 20
1801.314703188279
 30
0.0
 10
685.6111807429928
 20
1800.695185606813
 30
0.0
 10
685.1396321081379
 20
1800.1343974879
 30
0.0
  0
SPLINE
  5
202
330
13B
100
AcDbEntity
  8
P-SANR-FIXT
100
AcDbSpline
210
0.0
220
0.0
230
1.0
 70
     8
 71
     3
 72
     8
 73
     4
 74
     0
 42
0.000000001
 43
0.0000000001
 40
0.2504947132538361
 40
0.2504947132538361
 40
0.2504947132538361
 40
0.2504947132538361
 40
0.2592592592592593
 40
0.2592592592592593
 40
0.2592592592592593
 40
0.2592592592592593
 10
684.5725742892366
 20
1799.518185104744
 30
0.0
 10
684.5112605737698
 20
1799.457211839684
 30
0.0
 10
684.4491308364363
 20
1799.39708416918
 30
0.0
 10
684.3862095644475
 20
1799.337809340139
 30
0.0
  0
SPLINE
  5
203
330
13B
100
AcDbEntity
  8
P-SANR-FIXT
100
AcDbSpline
210
0.0
220
0.0
230
1.0
 70
     8
 71
     3
 72
     8
 73
     4
 74
     0
 42
0.000000001
 43
0.0000000001
 40
0.2916881575757647
 40
0.2916881575757647
 40
0.2916881575757647
 40
0.2916881575757647
 40
0.2962962962962963
 40
0.2962962962962963
 40
0.2962962962962963
 40
0.2962962962962963
 10
683.6564573613673
 20
1798.715342852791
 30
0.0
 10
683.6204531953529
 20
1798.687578773739
 30
0.0
 10
683.5842490883078
 20
1798.660067977657
 30
0.0
 10
683.5478465526128
 20
1798.632814869807
 30
0.0
  0
SPLINE
  5
204
330
13B
100
AcDbEntity
  8
P-SANR-FIXT
100
AcDbSpline
210
0.0
220
0.0
230
1.0
 70
     8
 71
     3
 72
     8
 73
     4
 74
     0
 42
0.000000001
 43
0.0000000001
 40
0.3333333333333333
 40
0.3333333333333333
 40
0.3333333333333333
 40
0.3333333333333333
 40
0.3339393150517989
 40
0.3339393150517989
 40
0.3339393150517989
 40
0.3339393150517989
 10
682.632441953684
 20
1798.027915780223
 30
0.0
 10
682.6272483270733
 20
1798.024914063334
 30
0.0
 10
682.6220514792826
 20
1798.021917414938
 30
0.0
 10
682.6168514228434
 20
1798.018925833761
 30
0.0
  0
SPLINE
  5
205
330
13B
100
AcDbEntity
  8
P-SANR-FIXT
100
AcDbSpline
210
0.0
220
0.0
230
1.0
 70
     8
 71
     3
 72
     8
 73
     4
 74
     0
 42
0.000000001
 43
0.0000000001
 40
0.3703703703703703
 40
0.3703703703703703
 40
0.3703703703703703
 40
0.3703703703703703
 40
0.3756859966675564
 40
0.3756859966675564
 40
0.3756859966675564
 40
0.3756859966675564
 10
681.6469154062047
 20
1797.534038421667
 30
0.0
 10
681.5983139687517
 20
1797.513100544457
 30
0.0
 10
681.5495236162997
 20
1797.492546689454
 30
0.0
 10
681.5005528025003
 20
1797.472375988762
 30
0.0
  0
SPLINE
  5
206
330
13B
100
AcDbEntity
  8
P-SANR-FIXT
100
AcDbSpline
210
0.0
220
0.0
230
1.0
 70
     8
 71
     3
 72
     8
 73
     4
 74
     0
 42
0.000000001
 43
0.0000000001
 40
0.4074074074074074
 40
0.4074074074074074
 40
0.4074074074074074
 40
0.4074074074074074
 40
0.4170143211834989
 40
0.4170143211834989
 40
0.4170143211834989
 40
0.4170143211834989
 10
680.6064432581623
 20
1797.152483808681
 30
0.0
 10
680.5146338749437
 20
1797.124480944193
 30
0.0
 10
680.4224224784761
 20
1797.097838347714
 30
0.0
 10
680.3298707969446
 20
1797.07261619095
 30
0.0
  0
SPLINE
  5
207
330
13B
100
AcDbEntity
  8
P-SANR-FIXT
100
AcDbSpline
210
0.0
220
0.0
230
1.0
 70
     8
 71
     3
 72
    10
 73
     6
 74
     0
 42
0.000000001
 43
0.0000000001
 40
0.4444444444444445
 40
0.4444444444444445
 40
0.4444444444444445
 40
0.4444444444444445
 40
0.4791666666666666
 40
0.5138888888888889
 40
0.5185185185185186
 40
0.5185185185185186
 40
0.5185185185185186
 40
0.5185185185185186
 10
679.530211129952
 20
1796.892710427712
 30
0.0
 10
679.190496561515
 20
1796.832638729347
 30
0.0
 10
678.5067856837859
 20
1796.75409713825
 30
0.0
 10
677.7492561551253
 20
1796.745832373889
 30
0.0
 10
677.3521422792172
 20
1796.764790261595
 30
0.0
 10
677.3055015749637
 20
1796.767346630161
 30
0.0
  0
SPLINE
  5
208
330
13B
100
AcDbEntity
  8
P-SANR-FIXT
100
AcDbSpline
210
0.0
220
0.0
230
1.0
 70
     8
 71
     3
 72
     9
 73
     5
 74
     0
 42
0.000000001
 43
0.0000000001
 40
0.5413708819466306
 40
0.5413708819466306
 40
0.5413708819466306
 40
0.5413708819466306
 40
0.5486111111111111
 40
0.5555555555555556
 40
0.5555555555555556
 40
0.5555555555555556
 40
0.5555555555555556
 10
676.6211379295944
 20
1796.829353905747
 30
0.0
 10
676.54960103876
 20
1796.838499037486
 30
0.0
 10
676.4099551505336
 20
1796.858058177299
 30
0.0
 10
676.2713350706301
 20
1796.880844927706
 30
0.0
 10
676.2036801347111
 20
1796.892775673358
 30
0.0
  0
SPLINE
  5
209
330
13B
100
AcDbEntity
  8
P-SANR-FIXT
100
AcDbSpline
210
0.0
220
0.0
230
1.0
 70
     8
 71
     3
 72
     9
 73
     5
 74
     0
 42
0.000000001
 43
0.0000000001
 40
0.5830573770073436
 40
0.5830573770073436
 40
0.5830573770073436
 40
0.5830573770073436
 40
0.5833333333333333
 40
0.5925925925925926
 40
0.5925925925925926
 40
0.5925925925925926
 40
0.5925925925925926
 10
675.4075243399199
 20
1797.07107240599
 30
0.0
 10
675.4048779520587
 20
1797.071789890233
 30
0.0
 10
675.3134386542694
 20
1797.096622753572
 30
0.0
 10
675.2221349912474
 20
1797.122933239087
 30
0.0
 10
675.1336859861179
 20
1797.149829027027
 30
0.0
  0
SPLINE
  5
20A
330
13B
100
AcDbEntity
  8
P-SANR-FIXT
100
AcDbSpline
210
0.0
220
0.0
230
1.0
 70
     8
 71
     3
 72
     8
 73
     4
 74
     0
 42
0.000000001
 43
0.0000000001
 40
0.6243567098550671
 40
0.6243567098550671
 40
0.6243567098550671
 40
0.6243567098550671
 40
0.6296296296296296
 40
0.6296296296296296
 40
0.6296296296296296
 40
0.6296296296296296
 10
674.2333885502225
 20
1797.471564296914
 30
0.0
 10
674.1843920057094
 20
1797.49181324704
 30
0.0
 10
674.135584062163
 20
1797.512466293331
 30
0.0
 10
674.0869739883984
 20
1797.533510625149
 30
0.0
  0
SPLINE
  5
20B
330
13B
100
AcDbEntity
  8
P-SANR-FIXT
100
AcDbSpline
210
0.0
220
0.0
230
1.0
 70
     8
 71
     3
 72
     8
 73
     4
 74
     0
 42
0.000000001
 43
0.0000000001
 40
0.6660905436288514
 40
0.6660905436288514
 40
0.6660905436288514
 40
0.6660905436288514
 40
0.6666666666666666
 40
0.6666666666666666
 40
0.6666666666666666
 40
0.6666666666666666
 10
673.1111788641236
 20
1798.02302375986
 30
0.0
 10
673.1062359797464
 20
1798.025873825323
 30
0.0
 10
673.1012957784871
 20
1798.028727728438
 30
0.0
 10
673.0963582762392
 20
1798.031585476042
 30
0.0
  0
SPLINE
  5
20C
330
13B
100
AcDbEntity
  8
P-SANR-FIXT
100
AcDbSpline
210
0.0
220
0.0
230
1.0
 70
     8
 71
     3
 72
     8
 73
     4
 74
     0
 42
0.000000001
 43
0.0000000001
 40
0.7037037037037035
 40
0.7037037037037035
 40
0.7037037037037035
 40
0.7037037037037035
 40
0.7083805906069041
 40
0.7083805906069041
 40
0.7083805906069041
 40
0.7083805906069041
 10
672.1840725588744
 20
1798.633682480398
 30
0.0
 10
672.1473379559522
 20
1798.661121394024
 30
0.0
 10
672.1107682614773
 20
1798.688793634861
 30
0.0
 10
672.0743967198281
 20
1798.716716656692
 30
0.0
  0
SPLINE
  5
20D
330
13B
100
AcDbEntity
  8
P-SANR-FIXT
100
AcDbSpline
210
0.0
220
0.0
230
1.0
 70
     8
 71
     3
 72
     8
 73
     4
 74
     0
 42
0.000000001
 43
0.0000000001
 40
0.7407407407407405
 40
0.7407407407407405
 40
0.7407407407407405
 40
0.7407407407407405
 40
0.7496192271731098
 40
0.7496192271731098
 40
0.7496192271731098
 40
0.7496192271731098
 10
671.350734329953
 20
1799.333373955324
 30
0.0
 10
671.2873403444572
 20
1799.39305248232
 30
0.0
 10
671.2251357396963
 20
1799.45383225351
 30
0.0
 10
671.1639301674698
 20
1799.51560263988
 30
0.0
  0
SPLINE
  5
20E
330
13B
100
AcDbEntity
  8
P-SANR-FIXT
100
AcDbSpline
210
0.0
220
0.0
230
1.0
 70
     8
 71
     3
 72
     9
 73
     5
 74
     0
 42
0.000000001
 43
0.0000000001
 40
0.7777777777777775
 40
0.7777777777777775
 40
0.7777777777777775
 40
0.7777777777777775
 40
0.7916666666666668
 40
0.8518518518518513
 40
0.8518518518518513
 40
0.8518518518518513
 40
0.8518518518518513
 10
670.5999517866688
 20
1800.126775830654
 30
0.0
 10
670.5115992710411
 20
1800.231736776177
 30
0.0
 10
670.0563248495441
 20
1800.804660266338
 30
0.0
 10
669.6145385040211
 20
1801.421221040883
 30
0.0
 10
669.3687379849858
 20
1801.96375880435
 30
0.0
  0
SPLINE
  5
20F
330
13B
100
AcDbEntity
  8
P-SANR-FIXT
100
AcDbSpline
210
0.0
220
0.0
230
1.0
 70
     8
 71
     3
 72
     8
 73
     4
 74
     0
 42
0.000000001
 43
0.0000000001
 40
0.8754456923638072
 40
0.8754456923638072
 40
0.8754456923638072
 40
0.8754456923638072
 40
0.8888888888888883
 40
0.8888888888888883
 40
0.8888888888888883
 40
0.8888888888888883
 10
669.0919523953172
 20
1802.605798821819
 30
0.0
 10
669.04115889588
 20
1802.72821695243
 30
0.0
 10
668.9977762891713
 20
1802.853209800107
 30
0.0
 10
668.9602678575538
 20
1802.980242151209
 30
0.0
  0
SPLINE
  5
210
330
13B
100
AcDbEntity
  8
P-SANR-FIXT
100
AcDbSpline
210
0.0
220
0.0
230
1.0
 70
     8
 71
     3
 72
     8
 73
     4
 74
     0
 42
0.000000001
 43
0.0000000001
 40
0.9176619090087561
 40
0.9176619090087561
 40
0.9176619090087561
 40
0.9176619090087561
 40
0.9259259259259254
 40
0.9259259259259254
 40
0.9259259259259254
 40
0.9259259259259254
 10
668.6931856564749
 20
1803.785463453685
 30
0.0
 10
668.6723392346326
 20
1803.864188875693
 30
0.0
 10
668.6542761439699
 20
1803.943924708335
 30
0.0
 10
668.6384579235912
 20
1804.024475187156
 30
0.0
  0
SPLINE
  5
211
330
13B
100
AcDbEntity
  8
P-SANR-FIXT
100
AcDbSpline
210
0.0
220
0.0
230
1.0
 70
     8
 71
     3
 72
     8
 73
     4
 74
     0
 42
0.000000001
 43
0.0000000001
 40
0.9594190961028511
 40
0.9594190961028511
 40
0.9594190961028511
 40
0.9594190961028511
 40
0.9629629629629622
 40
0.9629629629629622
 40
0.9629629629629622
 40
0.9629629629629622
 10
668.4538384865008
 20
1805.005991269881
 30
0.0
 10
668.4492231683825
 20
1805.04130032039
 30
0.0
 10
668.4451184863901
 20
1805.076802827868
 30
0.0
 10
668.4414380260379
 20
1805.112466033276
 30
0.0
  0
SPLINE
  5
212
330
13B
100
AcDbEntity
  8
P-SANR-FIXT
100
AcDbSpline
210
0.0
220
0.0
230
1.0
 70
     8
 71
     3
 72
     8
 73
     4
 74
     0
 42
0.000000001
 43
0.0000000001
 40
0.037037037037037
 40
0.037037037037037
 40
0.037037037037037
 40
0.037037037037037
 40
0.0405809038971425
 40
0.0405809038971425
 40
0.0405809038971425
 40
0.0405809038971425
 10
668.439917271851
 20
1807.378762371077
 30
0.0
 10
668.4441376246358
 20
1807.414162922768
 30
0.0
 10
668.4485392007516
 20
1807.449495516496
 30
0.0
 10
668.4531225000344
 20
1807.484760765242
 30
0.0
  0
SPLINE
  5
213
330
13B
100
AcDbEntity
  8
P-SANR-FIXT
100
AcDbSpline
210
0.0
220
0.0
230
1.0
 70
     8
 71
     3
 72
     8
 73
     4
 74
     0
 42
0.000000001
 43
0.0000000001
 40
0.0740740740740741
 40
0.0740740740740741
 40
0.0740740740740741
 40
0.0740740740740741
 40
0.0823380909912374
 40
0.0823380909912374
 40
0.0823380909912374
 40
0.0823380909912374
 10
668.6321906144269
 20
1808.467110221612
 30
0.0
 10
668.6509926249765
 20
1808.546505231177
 30
0.0
 10
668.670808507885
 20
1808.625565531507
 30
0.0
 10
668.6916446013985
 20
1808.704298895657
 30
0.0
  0
SPLINE
  5
214
330
13B
100
AcDbEntity
  8
P-SANR-FIXT
100
AcDbSpline
210
0.0
220
0.0
230
1.0
 70
     8
 71
     3
 72
     8
 73
     4
 74
     0
 42
0.000000001
 43
0.0000000001
 40
0.1111111111111111
 40
0.1111111111111111
 40
0.1111111111111111
 40
0.1111111111111111
 40
0.1245543076361867
 40
0.1245543076361867
 40
0.1245543076361867
 40
0.1245543076361867
 10
668.9466508485151
 20
1809.515120582803
 30
0.0
 10
668.9922266892432
 20
1809.639647190192
 30
0.0
 10
669.0405606079683
 20
1809.76338027496
 30
0.0
 10
669.0915707536802
 20
1809.886178532866
 30
0.0
  0
SPLINE
  5
215
330
13B
100
AcDbEntity
  8
P-SANR-FIXT
100
AcDbSpline
210
0.0
220
0.0
230
1.0
 70
     8
 71
     3
 72
     8
 73
     4
 74
     0
 42
0.000000001
 43
0.0000000001
 40
0.1481481481481481
 40
0.1481481481481481
 40
0.1481481481481481
 40
0.1481481481481481
 40
0.2222222222222222
 40
0.2222222222222222
 40
0.2222222222222222
 40
0.2222222222222222
 10
669.3844390999818
 20
1810.523337053556
 30
0.0
 10
669.7158857722641
 20
1811.179494990817
 30
0.0
 10
670.1242258789228
 20
1811.799740223781
 30
0.0
 10
670.5957658790611
 20
1812.360432781329
 30
0.0
  0
SPLINE
  5
216
330
13B
100
AcDbEntity
  8
P-SANR-FIXT
100
AcDbSpline
210
0.0
220
0.0
230
1.0
 70
     8
 71
     3
 72
     8
 73
     4
 74
     0
 42
0.000000001
 43
0.0000000001
 40
0.2503807728268874
 40
0.2503807728268874
 40
0.2503807728268874
 40
0.2503807728268874
 40
0.2592592592592593
 40
0.2592592592592593
 40
0.2592592592592593
 40
0.2592592592592593
 10
671.1601569866211
 20
1812.973856511399
 30
0.0
 10
671.222194645512
 20
1813.035575774861
 30
0.0
 10
671.2850645373976
 20
1813.096421114881
 30
0.0
 10
671.3487427896725
 20
1813.156386741709
 30
0.0
  0
SPLINE
  5
217
330
13B
100
AcDbEntity
  8
P-SANR-FIXT
100
AcDbSpline
210
0.0
220
0.0
230
1.0
 70
     8
 71
     3
 72
     8
 73
     4
 74
     0
 42
0.000000001
 43
0.0000000001
 40
0.2916194093930808
 40
0.2916194093930808
 40
0.2916194093930808
 40
0.2916194093930808
 40
0.2962962962962963
 40
0.2962962962962963
 40
0.2962962962962963
 40
0.2962962962962963
 10
672.0761393407165
 20
1813.776640254113
 30
0.0
 10
672.1126389528039
 20
1813.804778648419
 30
0.0
 10
672.1493451805184
 20
1813.832656628801
 30
0.0
 10
672.1862567145434
 20
1813.860269816114
 30
0.0
  0
SPLINE
  5
218
330
13B
100
AcDbEntity
  8
P-SANR-FIXT
100
AcDbSpline
210
0.0
220
0.0
230
1.0
 70
     8
 71
     3
 72
     8
 73
     4
 74
     0
 42
0.000000001
 43
0.0000000001
 40
0.3333333333333333
 40
0.3333333333333333
 40
0.3333333333333333
 40
0.3333333333333333
 40
0.3339094563711358
 40
0.3339094563711358
 40
0.3339094563711358
 40
0.3339094563711358
 10
673.1011582248287
 20
1814.464297062488
 30
0.0
 10
673.1060956262375
 20
1814.467148145288
 30
0.0
 10
673.1110359857211
 20
1814.469994683689
 30
0.0
 10
673.1159792920276
 20
1814.472836678407
 30
0.0
  0
SPLINE
  5
219
330
13B
100
AcDbEntity
  8
P-SANR-FIXT
100
AcDbSpline
210
0.0
220
0.0
230
1.0
 70
     8
 71
     3
 72
     8
 73
     4
 74
     0
 42
0.000000001
 43
0.0000000001
 40
0.3703703703703703
 40
0.3703703703703703
 40
0.3703703703703703
 40
0.3703703703703703
 40
0.3756432901449269
 40
0.3756432901449269
 40
0.3756432901449269
 40
0.3756432901449269
 10
674.0870716542005
 20
1814.958004386307
 30
0.0
 10
674.1353161632629
 20
1814.978778083809
 30
0.0
 10
674.1837478582864
 20
1814.999174944199
 30
0.0
 10
674.2323581173415
 20
1815.019195522302
 30
0.0
  0
SPLINE
  5
21A
330
13B
100
AcDbEntity
  8
P-SANR-FIXT
100
AcDbSpline
210
0.0
220
0.0
230
1.0
 70
     8
 71
     3
 72
     8
 73
     4
 74
     0
 42
0.000000001
 43
0.0000000001
 40
0.4074074074074074
 40
0.4074074074074074
 40
0.4074074074074074
 40
0.4074074074074074
 40
0.4169426229926506
 40
0.4169426229926506
 40
0.4169426229926506
 40
0.4169426229926506
 10
675.12832231134
 20
1815.339703789102
 30
0.0
 10
675.2195113630675
 20
1815.367508978985
 30
0.0
 10
675.3110944240269
 20
1815.393972714077
 30
0.0
 10
675.4030101056953
 20
1815.419035409982
 30
0.0
  0
SPLINE
  5
21B
330
13B
100
AcDbEntity
  8
P-SANR-FIXT
100
AcDbSpline
210
0.0
220
0.0
230
1.0
 70
     8
 71
     3
 72
     8
 73
     4
 74
     0
 42
0.000000001
 43
0.0000000001
 40
0.4444444444444445
 40
0.4444444444444445
 40
0.4444444444444445
 40
0.4444444444444445
 40
0.4586291180533694
 40
0.4586291180533694
 40
0.4586291180533694
 40
0.4586291180533694
 10
676.205158046925
 20
1815.599501046749
 30
0.0
 10
676.3439876759199
 20
1815.624025105397
 30
0.0
 10
676.483161248844
 20
1815.645068060203
 30
0.0
 10
676.6229883366919
 20
1815.662844636297
 30
0.0
  0
SPLINE
  5
21C
330
13B
100
AcDbEntity
  8
P-SANR-FIXT
100
AcDbSpline
210
0.0
220
0.0
230
1.0
 70
     8
 71
     3
 72
    10
 73
     6
 74
     0
 42
0.000000001
 43
0.0000000001
 40
0.4814814814814815
 40
0.4814814814814815
 40
0.4814814814814815
 40
0.4814814814814815
 40
0.5138888888888889
 40
0.5486111111111111
 40
0.5555555555555556
 40
0.5555555555555556
 40
0.5555555555555556
 40
0.5555555555555556
 10
677.305175632707
 20
1815.724224025009
 30
0.0
 10
677.631214184682
 20
1815.742045403215
 30
0.0
 10
678.3172125803215
 20
1815.746961474297
 30
0.0
 10
679.056963327047
 20
1815.677449014863
 30
0.0
 10
679.4640597167163
 20
1815.610481668733
 30
0.0
 10
679.5316951675192
 20
1815.598545591123
 30
0.0
  0
SPLINE
  5
21D
330
13B
100
AcDbEntity
  8
P-SANR-FIXT
100
AcDbSpline
210
0.0
220
0.0
230
1.0
 70
     8
 71
     3
 72
     9
 73
     5
 74
     0
 42
0.000000001
 43
0.0000000001
 40
0.5829856788164953
 40
0.5829856788164953
 40
0.5829856788164953
 40
0.5829856788164953
 40
0.5833333333333333
 40
0.5925925925925926
 40
0.5925925925925926
 40
0.5925925925925926
 40
0.5925925925925926
 10
680.3253871712582
 20
1815.420783749463
 30
0.0
 10
680.3287190160597
 20
1815.419880981887
 30
0.0
 10
680.4207864519297
 20
1815.394881957147
 30
0.0
 10
680.512710373674
 20
1815.368386733218
 30
0.0
 10
680.6010922703877
 20
1815.34150544234
 30
0.0
  0
SPLINE
  5
21E
330
13B
100
AcDbEntity
  8
P-SANR-FIXT
100
AcDbSpline
210
0.0
220
0.0
230
1.0
 70
     8
 71
     3
 72
     8
 73
     4
 74
     0
 42
0.000000001
 43
0.0000000001
 40
0.6243140033324436
 40
0.6243140033324436
 40
0.6243140033324436
 40
0.6243140033324436
 40
0.6296296296296296
 40
0.6296296296296296
 40
0.6296296296296296
 40
0.6296296296296296
 10
681.499483518646
 20
1815.020413675503
 30
0.0
 10
681.5488432160878
 20
1815.00001209723
 30
0.0
 10
681.5980128375343
 20
1814.979198618374
 30
0.0
 10
681.6469832793277
 20
1814.957986051273
 30
0.0
  0
SPLINE
  5
21F
330
13B
100
AcDbEntity
  8
P-SANR-FIXT
100
AcDbSpline
210
0.0
220
0.0
230
1.0
 70
     8
 71
     3
 72
     8
 73
     4
 74
     0
 42
0.000000001
 43
0.0000000001
 40
0.6660606849481945
 40
0.6660606849481945
 40
0.6660606849481945
 40
0.6660606849481945
 40
0.6666666666666666
 40
0.6666666666666666
 40
0.6666666666666666
 40
0.6666666666666666
 10
682.6217097547631
 20
1814.468666141011
 30
0.0
 10
682.6269099874342
 20
1814.465665534023
 30
0.0
 10
682.6321072897047
 20
1814.462660651817
 30
0.0
 10
682.6373016426717
 20
1814.459651486799
 30
0.0
  0
SPLINE
  5
220
330
13B
100
AcDbEntity
  8
P-SANR-FIXT
100
AcDbSpline
210
0.0
220
0.0
230
1.0
 70
     8
 71
     3
 72
     8
 73
     4
 74
     0
 42
0.000000001
 43
0.0000000001
 40
0.7037037037037035
 40
0.7037037037037035
 40
0.7037037037037035
 40
0.7037037037037035
 40
0.7083118424242276
 40
0.7083118424242276
 40
0.7083118424242276
 40
0.7083118424242276
 10
683.5500792218621
 20
1813.856699801605
 30
0.0
 10
683.5863038022543
 20
1813.829622011238
 30
0.0
 10
683.6223690076656
 20
1813.802317221544
 30
0.0
 10
683.6582428276012
 20
1813.774768917161
 30
0.0
  0
SPLINE
  5
221
330
13B
100
AcDbEntity
  8
P-SANR-FIXT
100
AcDbSpline
210
0.0
220
0.0
230
1.0
 70
     8
 71
     3
 72
     8
 73
     4
 74
     0
 42
0.000000001
 43
0.0000000001
 40
0.7407407407407405
 40
0.7407407407407405
 40
0.7407407407407405
 40
0.7407407407407405
 40
0.7495052867461637
 40
0.7495052867461637
 40
0.7495052867461637
 40
0.7495052867461637
 10
684.3841757983604
 20
1813.15598699933
 30
0.0
 10
684.4468110476314
 20
1813.097000987017
 30
0.0
 10
684.5082838684291
 20
1813.036945763234
 30
0.0
 10
684.5687761839315
 20
1812.975929107504
 30
0.0
  0
SPLINE
  5
222
330
13B
100
AcDbEntity
  8
P-SANR-FIXT
100
AcDbSpline
210
0.0
220
0.0
230
1.0
 70
     8
 71
     3
 72
     9
 73
     5
 74
     0
 42
0.000000001
 43
0.0000000001
 40
0.7777777777777775
 40
0.7777777777777775
 40
0.7777777777777775
 40
0.7777777777777775
 40
0.7916666666666668
 40
0.8518518518518513
 40
0.8518518518518513
 40
0.8518518518518513
 40
0.8518518518518513
 10
685.1353869377827
 20
1812.361965449985
 30
0.0
 10
685.2237470089026
 20
1812.256979785313
 30
0.0
 10
685.6789566591113
 20
1811.684046632693
 30
0.0
 10
686.1197664905525
 20
1811.068474507164
 30
0.0
 10
686.3650681111632
 20
1810.526480030306
 30
0.0
  0
SPLINE
  5
223
330
13B
100
AcDbEntity
  8
P-SANR-FIXT
100
AcDbSpline
210
0.0
220
0.0
230
1.0
 70
     8
 71
     3
 72
     8
 73
     4
 74
     0
 42
0.000000001
 43
0.0000000001
 40
0.8754076115263183
 40
0.8754076115263183
 40
0.8754076115263183
 40
0.8754076115263183
 40
0.8888888888888883
 40
0.8888888888888883
 40
0.8888888888888883
 40
0.8888888888888883
 10
686.6408918894663
 20
1809.886065643526
 30
0.0
 10
686.6917544826294
 20
1809.763406708405
 30
0.0
 10
686.7351872047354
 20
1809.638139237479
 30
0.0
 10
686.77273448278
 20
1809.51080672091
 30
0.0
  0
SPLINE
  5
224
330
13B
100
AcDbEntity
  8
P-SANR-FIXT
100
AcDbSpline
210
0.0
220
0.0
230
1.0
 70
     8
 71
     3
 72
     8
 73
     4
 74
     0
 42
0.000000001
 43
0.0000000001
 40
0.9176499692672152
 40
0.9176499692672152
 40
0.9176499692672152
 40
0.9176499692672152
 40
0.9259259259259254
 40
0.9259259259259254
 40
0.9259259259259254
 40
0.9259259259259254
 10
687.0394393599703
 20
1808.706382487018
 30
0.0
 10
687.0602991929048
 20
1808.62757303617
 30
0.0
 10
687.0783742409847
 20
1808.54774478013
 30
0.0
 10
687.0942039301472
 20
1808.467095342441
 30
0.0
  0
SPLINE
  5
225
330
13B
100
AcDbEntity
  8
P-SANR-FIXT
100
AcDbSpline
210
0.0
220
0.0
230
1.0
 70
     8
 71
     3
 72
     8
 73
     4
 74
     0
 42
0.000000001
 43
0.0000000001
 40
0.9594178647472993
 40
0.9594178647472993
 40
0.9594178647472993
 40
0.9594178647472993
 40
0.9629629629629622
 40
0.9629629629629622
 40
0.9629629629629622
 40
0.9629629629629622
 10
687.2787767170124
 20
1807.485803305811
 30
0.0
 10
687.2833960332703
 20
1807.450484817749
 30
0.0
 10
687.2875051998077
 20
1807.414972062339
 30
0.0
 10
687.2911905760755
 20
1807.379297944993
 30
0.0
  0
LINE
  5
226
330
13B
100
AcDbEntity
  8
P-SANR-FIXT
100
AcDbLine
 10
699.8664074431886
 20
1803.813661970268
 30
0.0
 11
713.2683762539033
 21
1803.813661970268
 31
0.0
  0
LINE
  5
227
330
13B
100
AcDbEntity
  8
P-SANR-FIXT
100
AcDbLine
 10
713.2872633834071
 20
1808.813661970269
 30
0.0
 11
699.8664074431886
 21
1808.813661970269
 31
0.0
  0
ARC
  5
228
330
13B
100
AcDbEntity
  8
P-SANR-FIXT
100
AcDbCircle
 10
769.8664074431885
 20
1806.245878730052
 30
0.0
 40
12.49999999999994
100
AcDbArc
 50
226.121194191456
 51
313.878805808541
  0
ARC
  5
229
330
13B
100
AcDbEntity
  8
P-SANR-FIXT
100
AcDbCircle
 10
769.8664074431885
 20
1806.245878730052
 30
0.0
 40
12.49999999999991
100
AcDbArc
 50
46.12119419144725
 51
55.86250379288838
  0
ARC
  5
22A
330
13B
100
AcDbEntity
  8
P-SANR-FIXT
100
AcDbCircle
 10
769.8664074431885
 20
1806.245878730052
 30
0.0
 40
12.5
100
AcDbArc
 50
90.0
 51
180.0
  0
ARC
  5
22B
330
13B
100
AcDbEntity
  8
P-SANR-FIXT
100
AcDbCircle
 10
737.8664074431886
 20
1806.245878730052
 30
0.0
 40
9.499999999999886
100
AcDbArc
 50
180.0
 51
0.0
  0
ARC
  5
22C
330
13B
100
AcDbEntity
  8
P-SANR-FIXT
100
AcDbCircle
 10
737.8664074431886
 20
1806.245878730052
 30
0.0
 40
9.499999999999886
100
AcDbArc
 50
0.0
 51
180.0
  0
ARC
  5
22D
330
13B
100
AcDbEntity
  8
P-SANR-FIXT
100
AcDbCircle
 10
677.8664074431885
 20
1806.245878730052
 30
0.0
 40
9.5
100
AcDbArc
 50
180.0
 51
0.0
  0
ARC
  5
22E
330
13B
100
AcDbEntity
  8
P-SANR-FIXT
100
AcDbCircle
 10
677.8664074431885
 20
1806.245878730052
 30
0.0
 40
9.5
100
AcDbArc
 50
0.0
 51
180.0
  0
LINE
  5
22F
330
13B
100
AcDbEntity
  8
P-SANR-FIXT
100
AcDbLine
 10
814.8664074431886
 20
1826.245878730044
 30
0.0
 11
814.8664074431886
 21
1815.245878730051
 31
0.0
  0
LINE
  5
230
330
13B
100
AcDbEntity
  8
P-SANR-FIXT
100
AcDbLine
 10
814.8664074431886
 20
1797.245878730051
 30
0.0
 11
814.8664074431886
 21
1786.245878730045
 31
0.0
  0
LINE
  5
231
330
13B
100
AcDbEntity
  8
P-SANR-FIXT
100
AcDbLine
 10
814.8664074431886
 20
1786.245878730045
 30
0.0
 11
792.3664074431886
 21
1786.245878730045
 31
0.0
  0
LINE
  5
232
330
13B
100
AcDbEntity
  8
P-SANR-FIXT
100
AcDbLine
 10
814.8664074431886
 20
1826.245878730044
 30
0.0
 11
792.3664074431886
 21
1826.245878730044
 31
0.0
  0
LINE
  5
233
330
13B
100
AcDbEntity
  8
P-SANR-FIXT
100
AcDbLine
 10
792.3664074431886
 20
1779.245878730052
 30
0.0
 11
792.3664074431886
 21
1797.239582908057
 31
0.0
  0
LINE
  5
234
330
13B
100
AcDbEntity
  8
P-SANR-FIXT
100
AcDbLine
 10
792.3664074431886
 20
1815.252174552044
 30
0.0
 11
792.3664074431886
 21
1833.245878730052
 31
0.0
  0
ELLIPSE
  5
235
330
13B
100
AcDbEntity
  8
P-SANR-FIXT
100
AcDbEllipse
 10
652.2582905352253
 20
1806.245878730052
 30
0.0
 11
0.0
 21
26.99999999999997
 31
0.0
210
0.0
220
0.0
230
1.0
 40
0.707106781186552
 41
2.871308600752067
 42
3.141592653589788
  0
ELLIPSE
  5
236
330
13B
100
AcDbEntity
  8
P-SANR-FIXT
100
AcDbEllipse
 10
652.2582905352253
 20
1806.245878730052
 30
0.0
 11
0.0000000000004573
 21
27.00000000000022
 31
0.0
210
0.0
220
0.0
230
0.9999999999999998
 40
0.7071067811865347
 41
0.000000000000012
 42
0.2702840528377115
  0
LINE
  5
237
330
13B
100
AcDbEntity
  8
P-SANR-FIXT
100
AcDbLine
 10
596.3664074431618
 20
1824.183132663078
 30
0.0
 11
596.3664074431618
 21
1826.24587873003
 31
0.0
  0
LINE
  5
238
330
13B
100
AcDbEntity
  8
P-SANR-FIXT
100
AcDbLine
 10
596.3664074431618
 20
1786.245878730059
 30
0.0
 11
596.3664074431618
 21
1788.308624797006
 31
0.0
  0
LINE
  5
239
330
13B
100
AcDbEntity
  8
P-SANR-FIXT
100
AcDbLine
 10
596.3664074431618
 20
1788.308624797006
 30
0.0
 11
596.3664074431618
 21
1804.183132663087
 31
0.0
  0
LINE
  5
23A
330
13B
100
AcDbEntity
  8
P-SANR-FIXT
100
AcDbLine
 10
596.3664074431618
 20
1804.183132663087
 30
0.0
 11
596.3664074431618
 21
1808.308624796985
 31
0.0
  0
LINE
  5
23B
330
13B
100
AcDbEntity
  8
P-SANR-FIXT
100
AcDbLine
 10
596.3664074431618
 20
1808.308624796985
 30
0.0
 11
596.3664074431618
 21
1824.183132663078
 31
0.0
  0
LINE
  5
23C
330
13B
100
AcDbEntity
  8
P-SANR-FIXT
100
AcDbLine
 10
596.3664074431618
 20
1824.183132663078
 30
0.0
 11
608.3664074431695
 21
1824.183132663078
 31
0.0
  0
LINE
  5
23D
330
13B
100
AcDbEntity
  8
P-SANR-FIXT
100
AcDbLine
 10
608.3664074431761
 20
1826.24587873003
 30
0.0
 11
596.3664074431618
 21
1826.24587873003
 31
0.0
  0
LINE
  5
23E
330
13B
100
AcDbEntity
  8
P-SANR-FIXT
100
AcDbLine
 10
608.3664074431765
 20
1786.245878730059
 30
0.0
 11
596.3664074431618
 21
1786.245878730059
 31
0.0
  0
LINE
  5
23F
330
13B
100
AcDbEntity
  8
P-SANR-FIXT
100
AcDbLine
 10
608.3664074431765
 20
1788.308624797006
 30
0.0
 11
596.3664074431618
 21
1788.308624797006
 31
0.0
  0
LINE
  5
240
330
13B
100
AcDbEntity
  8
P-SANR-FIXT
100
AcDbLine
 10
608.3664074431761
 20
1804.183132663087
 30
0.0
 11
596.3664074431618
 21
1804.183132663087
 31
0.0
  0
LINE
  5
241
330
13B
100
AcDbEntity
  8
P-SANR-FIXT
100
AcDbLine
 10
608.3664074431758
 20
1808.308624796985
 30
0.0
 11
596.3664074431618
 21
1808.308624796985
 31
0.0
  0
ENDBLK
  5
243
330
13B
100
AcDbEntity
  8
0
100
AcDbBlockEnd
  0
BLOCK
  5
2A3
330
245
100
AcDbEntity
  8
0
100
AcDbBlockBegin
  2
Automatic flow rate regulator valve_Caleffi_121 DN15 - 1_2__-V2-Est - Idraulica
 70
     0
 10
0.0
 20
0.0
 30
0.0
  3
Automatic flow rate regulator valve_Caleffi_121 DN15 - 1_2__-V2-Est - Idraulica
  1

  0
ARC
  5
246
330
245
100
AcDbEntity
  8
M-PIPE
100
AcDbCircle
 10
1067.114353943098
 20
1999.98255885001
 30
0.0
 40
33.00000000001846
100
AcDbArc
 50
89.99999999999982
 51
119.9999999999989
1001
REVIT
1002
{
1070
     3
1000
790271
1002
}
  0
ARC
  5
247
330
245
100
AcDbEntity
  8
M-PIPE
100
AcDbCircle
 10
1067.114353943098
 20
1999.98255885001
 30
0.0
 40
33.00000000001833
100
AcDbArc
 50
119.9999999999985
 51
179.9999999999968
1001
REVIT
1002
{
1070
     3
1000
790271
1002
}
  0
ARC
  5
248
330
245
100
AcDbEntity
  8
M-PIPE
100
AcDbCircle
 10
1067.114353943098
 20
1999.98255885001
 30
0.0
 40
33.00000000001819
100
AcDbArc
 50
179.9999999999968
 51
239.9999999999959
1001
REVIT
1002
{
1070
     3
1000
790271
1002
}
  0
ARC
  5
249
330
245
100
AcDbEntity
  8
M-PIPE
100
AcDbCircle
 10
1067.114353943098
 20
1999.98255885001
 30
0.0
 40
33.00000000001841
100
AcDbArc
 50
239.999999999996
 51
269.9999999999993
1001
REVIT
1002
{
1070
     3
1000
790271
1002
}
  0
ARC
  5
24A
330
245
100
AcDbEntity
  8
M-PIPE
100
AcDbCircle
 10
1067.114353943098
 20
1999.98255885001
 30
0.0
 40
33.00000000001819
100
AcDbArc
 50
270.0000000000004
 51
299.9999999999989
1001
REVIT
1002
{
1070
     3
1000
790271
1002
}
  0
ARC
  5
24B
330
245
100
AcDbEntity
  8
M-PIPE
100
AcDbCircle
 10
1067.114353943098
 20
1999.98255885001
 30
0.0
 40
33.00000000001833
100
AcDbArc
 50
299.9999999999981
 51
0.0
1001
REVIT
1002
{
1070
     3
1000
790271
1002
}
  0
ARC
  5
24C
330
245
100
AcDbEntity
  8
M-PIPE
100
AcDbCircle
 10
1067.114353943098
 20
1999.98255885001
 30
0.0
 40
33.00000000001819
100
AcDbArc
 50
0.0
 51
60.00000000000047
1001
REVIT
1002
{
1070
     3
1000
790271
1002
}
  0
ARC
  5
24D
330
245
100
AcDbEntity
  8
M-PIPE
100
AcDbCircle
 10
1067.114353943098
 20
1999.98255885001
 30
0.0
 40
33.00000000001817
100
AcDbArc
 50
60.00000000000047
 51
89.9999999999996
1001
REVIT
1002
{
1070
     3
1000
790271
1002
}
  0
SPLINE
  5
24E
330
245
100
AcDbEntity
  8
M-PIPE
100
AcDbSpline
210
0.0
220
0.0
230
1.0
 70
    24
 71
     3
 72
     9
 73
     5
 74
     0
 42
0.000000001
 43
0.0000000001
 40
0.0
 40
0.0
 40
0.0
 40
0.0
 40
0.5
 40
1.0
 40
1.0
 40
1.0
 40
1.0
 10
1038.154418148733
 20
2021.367649889912
 30
0.0
 10
1040.181869647844
 20
2022.538199558693
 30
0.0
 10
1044.285977112684
 20
2024.907707108301
 30
0.0
 10
1048.488493510761
 20
2027.334031082004
 30
0.0
 10
1050.614353943108
 20
2028.561397174879
 30
0.0
1001
REVIT
1002
{
1070
     3
1000
790271
1002
}
  0
SPLINE
  5
24F
330
245
100
AcDbEntity
  8
M-PIPE
100
AcDbSpline
210
0.0
220
0.0
230
1.0
 70
    24
 71
     3
 72
     9
 73
     5
 74
     0
 42
0.000000001
 43
0.0000000001
 40
0.0
 40
0.0
 40
0.0
 40
0.0
 40
0.5
 40
1.0
 40
1.0
 40
1.0
 40
1.0
 10
1050.614353943108
 20
2028.561397174879
 30
0.0
 10
1052.740214375456
 20
2029.788763267755
 30
0.0
 10
1056.942730773534
 20
2032.215087241459
 30
0.0
 10
1061.046838238375
 20
2034.584594791069
 30
0.0
 10
1063.074289737487
 20
2035.75514445985
 30
0.0
1001
REVIT
1002
{
1070
     3
1000
790271
1002
}
  0
SPLINE
  5
250
330
245
100
AcDbEntity
  8
M-PIPE
100
AcDbSpline
210
0.0
220
0.0
230
1.0
 70
    24
 71
     3
 72
     9
 73
     5
 74
     0
 42
0.000000001
 43
0.0000000001
 40
0.0
 40
0.0
 40
0.0
 40
0.0
 40
0.5
 40
1.0
 40
1.0
 40
1.0
 40
1.0
 10
1034.11435394311
 20
1985.595064280056
 30
0.0
 10
1034.11435394311
 20
1987.93616361762
 30
0.0
 10
1034.11435394311
 20
1992.675178716844
 30
0.0
 10
1034.11435394311
 20
1997.527826664257
 30
0.0
 10
1034.11435394311
 20
1999.982558850011
 30
0.0
1001
REVIT
1002
{
1070
     3
1000
790271
1002
}
  0
SPLINE
  5
251
330
245
100
AcDbEntity
  8
M-PIPE
100
AcDbSpline
210
0.0
220
0.0
230
1.0
 70
    24
 71
     3
 72
     9
 73
     5
 74
     0
 42
0.000000001
 43
0.0000000001
 40
0.0
 40
0.0
 40
0.0
 40
0.0
 40
0.5
 40
1.0
 40
1.0
 40
1.0
 40
1.0
 10
1034.11435394311
 20
1999.982558850011
 30
0.0
 10
1034.11435394311
 20
2002.437291035759
 30
0.0
 10
1034.11435394311
 20
2007.289938983161
 30
0.0
 10
1034.11435394311
 20
2012.028954082373
 30
0.0
 10
1034.11435394311
 20
2014.370053419933
 30
0.0
1001
REVIT
1002
{
1070
     3
1000
790271
1002
}
  0
SPLINE
  5
252
330
245
100
AcDbEntity
  8
M-PIPE
100
AcDbSpline
210
0.0
220
0.0
230
1.0
 70
    24
 71
     3
 72
     9
 73
     5
 74
     0
 42
0.000000001
 43
0.0000000001
 40
0.0
 40
0.0
 40
0.0
 40
0.0
 40
0.5
 40
1.0
 40
1.0
 40
1.0
 40
1.0
 10
1063.074289737487
 20
1964.209973240138
 30
0.0
 10
1061.046838238372
 20
1965.380522908921
 30
0.0
 10
1056.942730773525
 20
1967.750030458534
 30
0.0
 10
1052.740214375442
 20
1970.176354432241
 30
0.0
 10
1050.614353943092
 20
1971.403720525118
 30
0.0
1001
REVIT
1002
{
1070
     3
1000
790271
1002
}
  0
SPLINE
  5
253
330
245
100
AcDbEntity
  8
M-PIPE
100
AcDbSpline
210
0.0
220
0.0
230
1.0
 70
    24
 71
     3
 72
     9
 73
     5
 74
     0
 42
0.000000001
 43
0.0000000001
 40
0.0
 40
0.0
 40
0.0
 40
0.0
 40
0.5
 40
1.0
 40
1.0
 40
1.0
 40
1.0
 10
1050.614353943092
 20
1971.403720525118
 30
0.0
 10
1048.488493510748
 20
1972.63108661799
 30
0.0
 10
1044.285977112678
 20
1975.057410591691
 30
0.0
 10
1040.181869647841
 20
1977.426918141297
 30
0.0
 10
1038.154418148732
 20
1978.597467810077
 30
0.0
1001
REVIT
1002
{
1070
     3
1000
790271
1002
}
  0
SPLINE
  5
254
330
245
100
AcDbEntity
  8
M-PIPE
100
AcDbSpline
210
0.0
220
0.0
230
1.0
 70
    24
 71
     3
 72
     9
 73
     5
 74
     0
 42
0.000000001
 43
0.0000000001
 40
0.0
 40
0.0
 40
0.0
 40
0.0
 40
0.5
 40
1.0
 40
1.0
 40
1.0
 40
1.0
 10
1096.074289737487
 20
1978.597467810075
 30
0.0
 10
1094.046838238374
 20
1977.426918141294
 30
0.0
 10
1089.942730773531
 20
1975.057410591684
 30
0.0
 10
1085.740214375454
 20
1972.631086617981
 30
0.0
 10
1083.614353943107
 20
1971.403720525106
 30
0.0
1001
REVIT
1002
{
1070
     3
1000
790271
1002
}
  0
SPLINE
  5
255
330
245
100
AcDbEntity
  8
M-PIPE
100
AcDbSpline
210
0.0
220
0.0
230
1.0
 70
    24
 71
     3
 72
     9
 73
     5
 74
     0
 42
0.000000001
 43
0.0000000001
 40
0.0
 40
0.0
 40
0.0
 40
0.0
 40
0.5
 40
1.0
 40
1.0
 40
1.0
 40
1.0
 10
1083.614353943107
 20
1971.403720525106
 30
0.0
 10
1081.488493510761
 20
1970.176354432231
 30
0.0
 10
1077.285977112685
 20
1967.750030458528
 30
0.0
 10
1073.181869647844
 20
1965.380522908919
 30
0.0
 10
1071.154418148732
 20
1964.209973240138
 30
0.0
1001
REVIT
1002
{
1070
     3
1000
790271
1002
}
  0
SPLINE
  5
256
330
245
100
AcDbEntity
  8
M-PIPE
100
AcDbSpline
210
0.0
220
0.0
230
1.0
 70
    24
 71
     3
 72
     9
 73
     5
 74
     0
 42
0.000000001
 43
0.0000000001
 40
0.0
 40
0.0
 40
0.0
 40
0.0
 40
0.5
 40
1.0
 40
1.0
 40
1.0
 40
1.0
 10
1100.11435394311
 20
2014.370053419931
 30
0.0
 10
1100.11435394311
 20
2012.028954082371
 30
0.0
 10
1100.11435394311
 20
2007.289938983157
 30
0.0
 10
1100.11435394311
 20
2002.437291035757
 30
0.0
 10
1100.11435394311
 20
1999.98255885001
 30
0.0
1001
REVIT
1002
{
1070
     3
1000
790271
1002
}
  0
SPLINE
  5
257
330
245
100
AcDbEntity
  8
M-PIPE
100
AcDbSpline
210
0.0
220
0.0
230
1.0
 70
    24
 71
     3
 72
     9
 73
     5
 74
     0
 42
0.000000001
 43
0.0000000001
 40
0.0
 40
0.0
 40
0.0
 40
0.0
 40
0.5
 40
1.0
 40
1.0
 40
1.0
 40
1.0
 10
1100.11435394311
 20
1999.98255885001
 30
0.0
 10
1100.11435394311
 20
1997.527826664257
 30
0.0
 10
1100.11435394311
 20
1992.675178716845
 30
0.0
 10
1100.114353943109
 20
1987.93616361762
 30
0.0
 10
1100.114353943109
 20
1985.595064280055
 30
0.0
1001
REVIT
1002
{
1070
     3
1000
790271
1002
}
  0
SPLINE
  5
258
330
245
100
AcDbEntity
  8
M-PIPE
100
AcDbSpline
210
0.0
220
0.0
230
1.0
 70
    24
 71
     3
 72
     9
 73
     5
 74
     0
 42
0.000000001
 43
0.0000000001
 40
0.0
 40
0.0
 40
0.0
 40
0.0
 40
0.5
 40
1.0
 40
1.0
 40
1.0
 40
1.0
 10
1071.154418148734
 20
2035.755144459849
 30
0.0
 10
1073.181869647843
 20
2034.58459479107
 30
0.0
 10
1077.285977112678
 20
2032.215087241464
 30
0.0
 10
1081.488493510749
 20
2029.788763267764
 30
0.0
 10
1083.614353943093
 20
2028.56139717489
 30
0.0
1001
REVIT
1002
{
1070
     3
1000
790271
1002
}
  0
SPLINE
  5
259
330
245
100
AcDbEntity
  8
M-PIPE
100
AcDbSpline
210
0.0
220
0.0
230
1.0
 70
    24
 71
     3
 72
     9
 73
     5
 74
     0
 42
0.000000001
 43
0.0000000001
 40
0.0
 40
0.0
 40
0.0
 40
0.0
 40
0.5
 40
1.0
 40
1.0
 40
1.0
 40
1.0
 10
1083.614353943093
 20
2028.56139717489
 30
0.0
 10
1085.740214375444
 20
2027.334031082013
 30
0.0
 10
1089.942730773526
 20
2024.907707108306
 30
0.0
 10
1094.046838238373
 20
2022.538199558693
 30
0.0
 10
1096.074289737487
 20
2021.367649889911
 30
0.0
1001
REVIT
1002
{
1070
     3
1000
790271
1002
}
  0
ARC
  5
25A
330
245
100
AcDbEntity
  8
M-PIPE
100
AcDbCircle
 10
1067.114353943098
 20
1999.98255885001
 30
0.0
 40
35.99999999998795
100
AcDbArc
 50
89.99999999998914
 51
96.44353569088167
1001
REVIT
1002
{
1070
     3
1000
790271
1002
}
  0
ARC
  5
25B
330
245
100
AcDbEntity
  8
M-PIPE
100
AcDbCircle
 10
1067.114353943098
 20
1999.98255885001
 30
0.0
 40
35.99999999998577
100
AcDbArc
 50
143.5564643091093
 51
156.443535690913
1001
REVIT
1002
{
1070
     3
1000
790271
1002
}
  0
ARC
  5
25C
330
245
100
AcDbEntity
  8
M-PIPE
100
AcDbCircle
 10
1067.114353943098
 20
1999.98255885001
 30
0.0
 40
35.99999999999693
100
AcDbArc
 50
203.5564643091314
 51
216.4435356909288
1001
REVIT
1002
{
1070
     3
1000
790271
1002
}
  0
ARC
  5
25D
330
245
100
AcDbEntity
  8
M-PIPE
100
AcDbCircle
 10
1067.114353943098
 20
1999.98255885001
 30
0.0
 40
36.00000000001122
100
AcDbArc
 50
263.5564643091221
 51
270.000000000009
1001
REVIT
1002
{
1070
     3
1000
790271
1002
}
  0
ARC
  5
25E
330
245
100
AcDbEntity
  8
M-PIPE
100
AcDbCircle
 10
1067.114353943098
 20
1999.98255885001
 30
0.0
 40
36.00000000001251
100
AcDbArc
 50
270.0000000000101
 51
276.4435356909133
1001
REVIT
1002
{
1070
     3
1000
790271
1002
}
  0
ARC
  5
25F
330
245
100
AcDbEntity
  8
M-PIPE
100
AcDbCircle
 10
1067.114353943098
 20
1999.98255885001
 30
0.0
 40
36.0000000000147
100
AcDbArc
 50
323.5564643090898
 51
336.443535690881
1001
REVIT
1002
{
1070
     3
1000
790271
1002
}
  0
ARC
  5
260
330
245
100
AcDbEntity
  8
M-PIPE
100
AcDbCircle
 10
1067.114353943098
 20
1999.98255885001
 30
0.0
 40
36.00000000000342
100
AcDbArc
 50
23.55646430906772
 51
36.4435356908655
1001
REVIT
1002
{
1070
     3
1000
790271
1002
}
  0
ARC
  5
261
330
245
100
AcDbEntity
  8
M-PIPE
100
AcDbCircle
 10
1067.114353943098
 20
1999.98255885001
 30
0.0
 40
35.99999999998902
100
AcDbArc
 50
83.55646430907738
 51
89.99999999998914
1001
REVIT
1002
{
1070
     3
1000
790271
1002
}
  0
LINE
  5
262
330
245
100
AcDbEntity
  8
M-PIPE
100
AcDbLine
 10
1076.114353943098
 20
2065.982558850009
 30
0.0
 11
1076.114353943097
 21
2049.982558850045
 31
0.0
1001
REVIT
1002
{
1070
     3
1000
856288
1002
}
  0
LINE
  5
263
330
245
100
AcDbEntity
  8
M-PIPE
100
AcDbLine
 10
1076.114353943097
 20
2049.982558850045
 30
0.0
 11
1076.114353943097
 21
2046.982558850046
 31
0.0
1001
REVIT
1002
{
1070
     3
1000
856288
1002
}
  0
LINE
  5
264
330
245
100
AcDbEntity
  8
M-PIPE
100
AcDbLine
 10
1058.114353943097
 20
2049.982558850045
 30
0.0
 11
1058.114353943098
 21
2065.982558850009
 31
0.0
1001
REVIT
1002
{
1070
     3
1000
856288
1002
}
  0
LINE
  5
265
330
245
100
AcDbEntity
  8
M-PIPE
100
AcDbLine
 10
1076.114353943097
 20
2046.982558850026
 30
0.0
 11
1070.614353943119
 21
2046.982558850026
 31
0.0
1001
REVIT
1002
{
1070
     3
1000
856288
1002
}
  0
LINE
  5
266
330
245
100
AcDbEntity
  8
M-PIPE
100
AcDbLine
 10
1070.614353943119
 20
2046.982558850026
 30
0.0
 11
1067.114353943114
 21
2046.982558850026
 31
0.0
1001
REVIT
1002
{
1070
     3
1000
856288
1002
}
  0
LINE
  5
267
330
245
100
AcDbEntity
  8
M-PIPE
100
AcDbLine
 10
1067.114353943114
 20
2046.982558850026
 30
0.0
 11
1054.614353943114
 21
2046.982558850026
 31
0.0
1001
REVIT
1002
{
1070
     3
1000
856288
1002
}
  0
LINE
  5
268
330
245
100
AcDbEntity
  8
M-PIPE
100
AcDbLine
 10
1054.614353943114
 20
2049.982558850045
 30
0.0
 11
1067.114353943114
 21
2049.982558850045
 31
0.0
1001
REVIT
1002
{
1070
     3
1000
856288
1002
}
  0
LINE
  5
269
330
245
100
AcDbEntity
  8
M-PIPE
100
AcDbLine
 10
1067.114353943114
 20
2049.982558850045
 30
0.0
 11
1070.614353943119
 21
2049.982558850045
 31
0.0
1001
REVIT
1002
{
1070
     3
1000
856288
1002
}
  0
LINE
  5
26A
330
245
100
AcDbEntity
  8
M-PIPE
100
AcDbLine
 10
1054.614353943114
 20
2046.982558850009
 30
0.0
 11
1054.614353943114
 21
2049.982558850045
 31
0.0
1001
REVIT
1002
{
1070
     3
1000
856288
1002
}
  0
LINE
  5
26B
330
245
100
AcDbEntity
  8
M-PIPE
100
AcDbLine
 10
1058.114353943098
 20
2065.982558850009
 30
0.0
 11
1076.114353943098
 21
2065.982558850009
 31
0.0
1001
REVIT
1002
{
1070
     3
1000
856288
1002
}
  0
LINE
  5
26C
330
245
100
AcDbEntity
  8
M-PIPE
100
AcDbLine
 10
1070.614353943119
 20
2049.982558850045
 30
0.0
 11
1076.114353943097
 21
2049.982558850045
 31
0.0
1001
REVIT
1002
{
1070
     3
1000
856288
1002
}
  0
LINE
  5
26D
330
245
100
AcDbEntity
  8
M-PIPE
100
AcDbLine
 10
1070.614353943119
 20
2046.982558850046
 30
0.0
 11
1070.614353943119
 21
2049.982558850045
 31
0.0
1001
REVIT
1002
{
1070
     3
1000
856288
1002
}
  0
LINE
  5
26E
330
245
100
AcDbEntity
  8
P-SANR-FIXT
100
AcDbLine
 10
1061.614353943097
 20
2046.982558850017
 30
0.0
 11
1061.614353943097
 21
2040.982558850011
 31
0.0
  0
LINE
  5
26F
330
245
100
AcDbEntity
  8
P-SANR-FIXT
100
AcDbLine
 10
1072.614353943098
 20
2040.982558850011
 30
0.0
 11
1072.614353943098
 21
2046.982558850047
 31
0.0
  0
LINE
  5
270
330
245
100
AcDbEntity
  8
P-SANR-FIXT
100
AcDbLine
 10
1057.876749636062
 20
2038.482558850011
 30
0.0
 11
1062.495551789579
 21
2038.482558850011
 31
0.0
  0
LINE
  5
271
330
245
100
AcDbEntity
  8
P-SANR-FIXT
100
AcDbLine
 10
1062.495551789579
 20
2038.482558850011
 30
0.0
 11
1071.733156096613
 21
2038.482558850011
 31
0.0
  0
LINE
  5
272
330
245
100
AcDbEntity
  8
P-SANR-FIXT
100
AcDbLine
 10
1071.733156096613
 20
2038.482558850011
 30
0.0
 11
1076.351958250131
 21
2038.482558850011
 31
0.0
  0
LINE
  5
273
330
245
100
AcDbEntity
  8
P-SANR-FIXT
100
AcDbLine
 10
1076.351958250131
 20
2038.482558850011
 30
0.0
 11
1076.351958250131
 21
2032.982558850011
 31
0.0
  0
LINE
  5
274
330
245
100
AcDbEntity
  8
P-SANR-FIXT
100
AcDbLine
 10
1057.876749636062
 20
2032.982558850011
 30
0.0
 11
1057.876749636062
 21
2038.482558850011
 31
0.0
  0
LINE
  5
275
330
245
100
AcDbEntity
  8
P-SANR-FIXT
100
AcDbLine
 10
1062.495551789579
 20
2035.421009949835
 30
0.0
 11
1062.495551789579
 21
2038.482558850011
 31
0.0
  0
LINE
  5
276
330
245
100
AcDbEntity
  8
P-SANR-FIXT
100
AcDbLine
 10
1071.733156096613
 20
2035.421009949854
 30
0.0
 11
1071.733156096613
 21
2038.482558850011
 31
0.0
  0
LINE
  5
277
330
245
100
AcDbEntity
  8
P-SANR-FIXT
100
AcDbLine
 10
1096.364353943098
 20
1929.126418868012
 30
0.0
 11
1096.364353943098
 21
1966.956631661493
 31
0.0
  0
LINE
  5
278
330
245
100
AcDbEntity
  8
P-SANR-FIXT
100
AcDbLine
 10
1037.864353943097
 20
1966.956631661493
 30
0.0
 11
1037.864353943097
 21
1929.126418868012
 31
0.0
  0
LINE
  5
279
330
245
100
AcDbEntity
  8
P-SANR-FIXT
100
AcDbLine
 10
1094.114353943097
 20
1919.074441942047
 30
0.0
 11
1094.114353943098
 21
1927.535428610342
 31
0.0
  0
LINE
  5
27A
330
245
100
AcDbEntity
  8
P-SANR-FIXT
100
AcDbLine
 10
1040.114353943097
 20
1927.535428610343
 30
0.0
 11
1040.114353943097
 21
1919.074441942048
 31
0.0
  0
LINE
  5
27B
330
245
100
AcDbEntity
  8
P-SANR-FIXT
100
AcDbLine
 10
1041.114353943098
 20
1976.888548082417
 30
0.0
 11
1041.114353943098
 21
1961.633152508259
 31
0.0
  0
LINE
  5
27C
330
245
100
AcDbEntity
  8
P-SANR-FIXT
100
AcDbLine
 10
1093.114353943097
 20
1961.633152508259
 30
0.0
 11
1093.114353943097
 21
1976.888548082401
 31
0.0
  0
LINE
  5
27D
330
245
100
AcDbEntity
  8
P-SANR-FIXT
100
AcDbLine
 10
1079.614353943098
 20
2030.856743584744
 30
0.0
 11
1079.614353943098
 21
2040.982558850012
 31
0.0
  0
LINE
  5
27E
330
245
100
AcDbEntity
  8
P-SANR-FIXT
100
AcDbLine
 10
1054.614353943098
 20
2040.982558850012
 30
0.0
 11
1054.614353943098
 21
2030.856743584738
 31
0.0
  0
LINE
  5
27F
330
245
100
AcDbEntity
  8
P-SANR-FIXT
100
AcDbLine
 10
1076.614353943098
 20
2032.602849059216
 30
0.0
 11
1076.614353943098
 21
2032.982558850011
 31
0.0
  0
LINE
  5
280
330
245
100
AcDbEntity
  8
P-SANR-FIXT
100
AcDbLine
 10
1057.614353943097
 20
2032.982558850011
 30
0.0
 11
1057.614353943097
 21
2032.6028490592
 31
0.0
  0
LINE
  5
281
330
245
100
AcDbEntity
  8
P-SANR-FIXT
100
AcDbLine
 10
1081.364353943097
 20
1913.417587692555
 30
0.0
 11
1081.364353943097
 21
1919.074441942047
 31
0.0
  0
LINE
  5
282
330
245
100
AcDbEntity
  8
P-SANR-FIXT
100
AcDbLine
 10
1052.864353943097
 20
1919.074441942048
 30
0.0
 11
1052.864353943097
 21
1913.417587692555
 31
0.0
  0
ELLIPSE
  5
283
330
245
100
AcDbEntity
  8
P-SANR-FIXT
100
AcDbEllipse
 10
1067.114353943096
 20
1966.956631661492
 30
0.0
 11
29.25000000000047
 21
0.0
 31
0.0
210
0.0
220
0.0
230
0.9999999999999998
 40
0.7071067811865376
 41
6.247397912726175
 42
6.759067556840015
  0
SPLINE
  5
284
330
245
100
AcDbEntity
  8
P-SANR-FIXT
100
AcDbSpline
210
0.0
220
0.0
230
1.0
 70
     8
 71
     3
 72
    28
 73
    24
 74
     0
 42
0.000000001
 43
0.0000000001
 40
0.0
 40
0.0
 40
0.0
 40
0.0
 40
0.0714285714285714
 40
0.1071428571428571
 40
0.1428571428571428
 40
0.2142857142857143
 40
0.25
 40
0.2857142857142857
 40
0.3035714285714286
 40
0.3214285714285714
 40
0.3571428571428571
 40
0.3928571428571428
 40
0.4107142857142857
 40
0.4285714285714286
 40
0.4464285714285714
 40
0.4642857142857144
 40
0.5
 40
0.5357142857142857
 40
0.5714285714285714
 40
0.6071428571428572
 40
0.6428571428571428
 40
0.7142857142857144
 40
1.0
 40
1.0
 40
1.0
 40
1.0
 10
1093.114353943096
 20
1961.633152508258
 30
0.0
 10
1093.127527451485
 20
1960.866292198217
 30
0.0
 10
1093.084321194762
 20
1959.839705140253
 30
0.0
 10
1092.893259169502
 20
1958.716547961958
 30
0.0
 10
1092.613309656312
 20
1957.75447846187
 30
0.0
 10
1092.154951612996
 20
1957.032858250002
 30
0.0
 10
1091.525938886367
 20
1956.534015275469
 30
0.0
 10
1091.077639146643
 20
1956.306818136561
 30
0.0
 10
1090.68021282501
 20
1956.183028674717
 30
0.0
 10
1090.243559302528
 20
1956.103605589822
 30
0.0
 10
1089.635514681114
 20
1956.069982375734
 30
0.0
 10
1088.957652979313
 20
1956.094017613488
 30
0.0
 10
1088.38455272271
 20
1956.131255102425
 30
0.0
 10
1087.944760531474
 20
1956.161868739271
 30
0.0
 10
1087.490352727813
 20
1956.200917288221
 30
0.0
 10
1086.85512438528
 20
1956.273493345726
 30
0.0
 10
1086.014144925233
 20
1956.38986064753
 30
0.0
 10
1084.937638299594
 20
1956.553530343043
 30
0.0
 10
1083.811597237121
 20
1956.71740558512
 30
0.0
 10
1082.635033971347
 20
1956.881840400913
 30
0.0
 10
1080.984954520466
 20
1957.113248215331
 30
0.0
 10
1076.191741306322
 20
1957.719799317336
 30
0.0
 10
1071.175687212665
 20
1958.048647333933
 30
0.0
 10
1067.114353943096
 20
1958.048305549424
 30
0.0
  0
SPLINE
  5
285
330
245
100
AcDbEntity
  8
P-SANR-FIXT
100
AcDbSpline
210
0.0
220
0.0
230
1.0
 70
     8
 71
     3
 72
    29
 73
    25
 74
     0
 42
0.000000001
 43
0.0000000001
 40
0.0
 40
0.0
 40
0.0
 40
0.0
 40
0.1428571428571428
 40
0.2857142857142857
 40
0.3571428571428571
 40
0.3928571428571428
 40
0.4285714285714286
 40
0.4642857142857144
 40
0.5
 40
0.5357142857142857
 40
0.5535714285714287
 40
0.5714285714285714
 40
0.5982142857142857
 40
0.625
 40
0.6785714285714287
 40
0.7053571428571429
 40
0.71875
 40
0.7321428571428572
 40
0.7857142857142857
 40
0.8392857142857142
 40
0.8660714285714284
 40
0.8928571428571427
 40
0.9464285714285713
 40
1.0
 40
1.0
 40
1.0
 40
1.0
 10
1067.114353943096
 20
1958.048305549424
 30
0.0
 10
1065.083687308312
 20
1958.048476441678
 30
0.0
 10
1061.058324587657
 20
1957.924548436551
 30
0.0
 10
1056.292476094925
 20
1957.498281067705
 30
0.0
 10
1053.243881993547
 20
1957.113329769391
 30
0.0
 10
1051.593649871982
 20
1956.881825259449
 30
0.0
 10
1050.417116360374
 20
1956.717408770797
 30
0.0
 10
1049.291070784252
 20
1956.553532741797
 30
0.0
 10
1048.214552459043
 20
1956.389847866836
 30
0.0
 10
1047.373615758936
 20
1956.273531818963
 30
0.0
 10
1046.738299194319
 20
1956.200850592534
 30
0.0
 10
1046.208471310812
 20
1956.155668799095
 30
0.0
 10
1045.625176546327
 20
1956.115544633144
 30
0.0
 10
1044.786281667532
 20
1956.070445223765
 30
0.0
 10
1044.031302209456
 20
1956.084957117637
 30
0.0
 10
1043.469333161874
 20
1956.200694970725
 30
0.0
 10
1043.181208466586
 20
1956.306380541385
 30
0.0
 10
1042.766819830071
 20
1956.494594539632
 30
0.0
 10
1042.214733162055
 20
1956.88533436132
 30
0.0
 10
1041.753791112966
 20
1957.526379292884
 30
0.0
 10
1041.492812842898
 20
1958.172970980672
 30
0.0
 10
1041.289100507858
 20
1958.909443314983
 30
0.0
 10
1041.132426005018
 20
1960.000414087805
 30
0.0
 10
1041.104473811805
 20
1961.058007275728
 30
0.0
 10
1041.114353943097
 20
1961.633152508259
 30
0.0
  0
ELLIPSE
  5
286
330
245
100
AcDbEntity
  8
P-SANR-FIXT
100
AcDbEllipse
 10
1067.114353943096
 20
1966.956631661492
 30
0.0
 11
29.25000000000008
 21
0.0
 31
0.0
210
0.0
220
0.0
230
1.0
 40
0.7071067811865508
 41
2.665710403929354
 42
3.177380048043179
  0
ELLIPSE
  5
287
330
245
100
AcDbEntity
  8
P-SANR-FIXT
100
AcDbEllipse
 10
1067.114353943096
 20
1929.126418868012
 30
0.0
 11
-29.25
 21
0.00000000000032
 31
0.0
210
0.0
220
0.0
230
1.0
 40
0.7071067811865426
 41
2.746975986589831
 42
4.7123889803847
  0
ELLIPSE
  5
288
330
245
100
AcDbEntity
  8
P-SANR-FIXT
100
AcDbEllipse
 10
1067.114353943096
 20
1929.126418868012
 30
0.0
 11
29.25000000000005
 21
0.0
 31
0.0
210
0.0
220
0.0
230
1.0
 40
0.7071067811865442
 41
1.570796326794904
 42
3.536209320589756
  0
ELLIPSE
  5
289
330
245
100
AcDbEntity
  8
P-SANR-FIXT
100
AcDbEllipse
 10
1067.114353943096
 20
1927.535428610342
 30
0.0
 11
-27.0
 21
0.0000000000003194
 31
0.0
210
0.0
220
0.0
230
1.0
 40
0.7071067811865407
 41
3.141592653589805
 42
4.712388980384702
  0
ELLIPSE
  5
28A
330
245
100
AcDbEntity
  8
P-SANR-FIXT
100
AcDbEllipse
 10
1067.114353943096
 20
1927.535428610342
 30
0.0
 11
-27.0
 21
0.0000000000003194
 31
0.0
210
0.0
220
0.0
230
1.0
 40
0.7071067811865407
 41
4.712388980384702
 42
6.283185307179604
  0
LINE
  5
28B
330
245
100
AcDbEntity
  8
P-SANR-FIXT
100
AcDbLine
 10
1067.114353943097
 20
2040.982558850011
 30
0.0
 11
1079.614353943097
 21
2040.982558850011
 31
0.0
  0
LINE
  5
28C
330
245
100
AcDbEntity
  8
P-SANR-FIXT
100
AcDbLine
 10
1054.614353943097
 20
2040.982558850011
 30
0.0
 11
1067.114353943097
 21
2040.982558850011
 31
0.0
  0
LINE
  5
28D
330
245
100
AcDbEntity
  8
P-SANR-FIXT
100
AcDbLine
 10
1075.96718071886
 20
2032.982558850011
 30
0.0
 11
1076.614353943097
 21
2032.982558850011
 31
0.0
  0
LINE
  5
28E
330
245
100
AcDbEntity
  8
P-SANR-FIXT
100
AcDbLine
 10
1057.614353943096
 20
2032.982558850011
 30
0.0
 11
1058.261527167364
 21
2032.982558850011
 31
0.0
  0
ELLIPSE
  5
28F
330
245
100
AcDbEntity
  8
P-SANR-FIXT
100
AcDbEllipse
 10
1067.114353943096
 20
1919.074441942047
 30
0.0
 11
14.25
 21
0.0
 31
0.0
210
0.0
220
0.0
230
1.0
 40
0.7071067811865552
 41
0.0
 42
1.570796326794896
  0
ELLIPSE
  5
290
330
245
100
AcDbEntity
  8
P-SANR-FIXT
100
AcDbEllipse
 10
1067.114353943096
 20
1919.074441942047
 30
0.0
 11
14.25000000000023
 21
0.0
 31
0.0
210
0.0
220
0.0
230
1.0
 40
0.7071067811865439
 41
1.570796326794896
 42
3.141592653589793
  0
ELLIPSE
  5
291
330
245
100
AcDbEntity
  8
P-SANR-FIXT
100
AcDbEllipse
 10
1067.114353943096
 20
1913.417587692555
 30
0.0
 11
14.25
 21
0.0
 31
0.0
210
0.0
220
0.0
230
1.0
 40
0.7071067811865392
 41
4.712388980384683
 42
7.853981633974482
  0
ELLIPSE
  5
292
330
245
100
AcDbEntity
  8
P-SANR-FIXT
100
AcDbEllipse
 10
1067.114353943096
 20
1913.417587692555
 30
0.0
 11
14.25000000000023
 21
0.0
 31
0.0
210
0.0
220
0.0
230
1.0
 40
0.7071067811865439
 41
1.570796326794896
 42
4.712388980384683
  0
ELLIPSE
  5
293
330
245
100
AcDbEntity
  8
P-SANR-FIXT
100
AcDbEllipse
 10
1067.114353943096
 20
1919.074441942047
 30
0.0
 11
-27.0
 21
0.0000000000003194
 31
0.0
210
0.0
220
0.0
230
1.0
 40
0.707106781186549
 41
1.5707963267949
 42
4.712388980384702
  0
ELLIPSE
  5
294
330
245
100
AcDbEntity
  8
P-SANR-FIXT
100
AcDbEllipse
 10
1067.114353943096
 20
1919.074441942047
 30
0.0
 11
27.0
 21
0.0
 31
0.0
210
0.0
220
0.0
230
1.0
 40
0.7071067811865407
 41
1.570796326794904
 42
4.712388980384683
  0
ARC
  5
295
330
245
100
AcDbEntity
  8
P-SANR-FIXT
100
AcDbCircle
 10
1067.114353943098
 20
1999.982558850012
 30
0.0
 40
21.99999999991442
100
AcDbArc
 50
144.6199773282235
 51
155.3800226717003
  0
LINE
  5
296
330
245
100
AcDbEntity
  8
P-SANR-FIXT
100
AcDbLine
 10
1047.114353943118
 20
2009.147710239764
 30
0.0
 11
1047.114353943106
 21
1990.817407460288
 31
0.0
  0
ARC
  5
297
330
245
100
AcDbEntity
  8
P-SANR-FIXT
100
AcDbCircle
 10
1067.114353943098
 20
1999.982558850012
 30
0.0
 40
21.9999999999142
100
AcDbArc
 50
204.6199773282213
 51
215.380022671699
  0
LINE
  5
298
330
245
100
AcDbEntity
  8
P-SANR-FIXT
100
AcDbLine
 10
1049.177100010053
 20
1987.244626469217
 30
0.0
 11
1065.051607876133
 21
1978.079475079468
 31
0.0
  0
ARC
  5
299
330
245
100
AcDbEntity
  8
P-SANR-FIXT
100
AcDbCircle
 10
1067.114353943098
 20
1999.982558850012
 30
0.0
 40
21.9999999999143
100
AcDbArc
 50
264.6199773282216
 51
275.3800226716986
  0
LINE
  5
29A
330
245
100
AcDbEntity
  8
P-SANR-FIXT
100
AcDbLine
 10
1069.177100010032
 20
1978.079475079466
 30
0.0
 11
1085.051607876125
 21
1987.244626469193
 31
0.0
  0
ARC
  5
29B
330
245
100
AcDbEntity
  8
P-SANR-FIXT
100
AcDbCircle
 10
1067.114353943098
 20
1999.982558850012
 30
0.0
 40
21.99999999991437
100
AcDbArc
 50
324.6199773282212
 51
335.3800226716983
  0
LINE
  5
29C
330
245
100
AcDbEntity
  8
P-SANR-FIXT
100
AcDbLine
 10
1087.114353943077
 20
1990.817407460261
 30
0.0
 11
1087.114353943089
 21
2009.147710239736
 31
0.0
  0
ARC
  5
29D
330
245
100
AcDbEntity
  8
P-SANR-FIXT
100
AcDbCircle
 10
1067.114353943098
 20
1999.982558850012
 30
0.0
 40
21.99999999991441
100
AcDbArc
 50
24.61997732822204
 51
35.38002267169911
  0
LINE
  5
29E
330
245
100
AcDbEntity
  8
P-SANR-FIXT
100
AcDbLine
 10
1085.051607876142
 20
2012.720491230807
 30
0.0
 11
1069.177100010062
 21
2021.885642620556
 31
0.0
  0
ARC
  5
29F
330
245
100
AcDbEntity
  8
P-SANR-FIXT
100
AcDbCircle
 10
1067.114353943098
 20
1999.982558850012
 30
0.0
 40
21.99999999991427
100
AcDbArc
 50
84.61997732822249
 51
95.38002267170016
  0
LINE
  5
2A0
330
245
100
AcDbEntity
  8
P-SANR-FIXT
100
AcDbLine
 10
1065.051607876163
 20
2021.885642620559
 30
0.0
 11
1049.17710001007
 21
2012.720491230831
 31
0.0
  0
ARC
  5
2A1
330
245
100
AcDbEntity
  8
P-SANR-FIXT
100
AcDbCircle
 10
1067.114353943096
 20
1999.98255885001
 30
0.0
 40
12.70000000000004
100
AcDbArc
 50
269.9999999999997
 51
90.0
  0
ARC
  5
2A2
330
245
100
AcDbEntity
  8
P-SANR-FIXT
100
AcDbCircle
 10
1067.114353943096
 20
1999.98255885001
 30
0.0
 40
12.69999999999982
100
AcDbArc
 50
90.0
 51
269.9999999999997
  0
ENDBLK
  5
2A4
330
245
100
AcDbEntity
  8
0
100
AcDbBlockEnd
  0
ENDSEC
  0
SECTION
  2
ENTITIES
  0
INSERT
  5
13A
330
71
100
AcDbEntity
  8
P-SANR-FIXT
100
AcDbBlockReference
  2
Automatic flow rate regulator valve_Caleffi_121 DN15 - 1_2__-859151-Est - Idraulica
 10
0.0
 20
0.0
 30
0.0
1001
REVIT
1002
{
1070
     1
1000
863131
1002
}
1002
{
1070
     5
1000
859151
1002
}
1002
{
1070
     2
1000
-2001160
1002
}
  0
INSERT
  5
244
330
71
100
AcDbEntity
  8
P-SANR-FIXT
100
AcDbBlockReference
  2
Automatic flow rate regulator valve_Caleffi_121 DN15 - 1_2__-V1-Est - Idraulica
 10
0.0
 20
0.0
 30
0.0
1001
REVIT
1002
{
1070
     1
1000
863152
1002
}
1002
{
1070
     5
1000
859151
1002
}
1002
{
1070
     2
1000
-2001160
1002
}
  0
INSERT
  5
2A5
330
71
100
AcDbEntity
  8
P-SANR-FIXT
100
AcDbBlockReference
  2
Automatic flow rate regulator valve_Caleffi_121 DN15 - 1_2__-V2-Est - Idraulica
 10
0.0
 20
0.0
 30
0.0
1001
REVIT
1002
{
1070
     1
1000
863172
1002
}
1002
{
1070
     5
1000
859151
1002
}
1002
{
1070
     2
1000
-2001160
1002
}
  0
ENDSEC
  0
SECTION
  2
OBJECTS
  0
DICTIONARY
  5
C
330
0
100
AcDbDictionary
281
     1
  3
ACAD_CIP_PREVIOUS_PRODUCT_INFO
350
7A
  3
ACAD_COLOR
350
63
  3
ACAD_DETAILVIEWSTYLE
350
6B
  3
ACAD_GROUP
350
D
  3
ACAD_IMAGE_VARS
350
7B
  3
ACAD_LAYOUT
350
62
  3
ACAD_MATERIAL
350
10
  3
ACAD_MLEADERSTYLE
350
66
  3
ACAD_MLINESTYLE
350
5F
  3
ACAD_PLOTSETTINGS
350
61
  3
ACAD_PLOTSTYLENAME
350
E
  3
ACAD_SCALELIST
350
42
  3
ACAD_SECTIONVIEWSTYLE
350
68
  3
ACAD_TABLESTYLE
350
64
  3
ACAD_VISUALSTYLE
350
29
  3
ACDB_RECOMPOSE_DATA
350
2B0
  3
AcDbVariableDictionary
350
7C
  3
REVIT_DICTIONARY
350
2A7
  0
DICTIONARY
  5
2AC
330
71
100
AcDbDictionary
280
     1
281
     1
  3
ACAD_SORTENTS
360
2AD
  0
XRECORD
  5
7A
102
{ACAD_REACTORS
330
C
102
}
330
C
100
AcDbXrecord
280
     1
300
RVT
300
2013
300
RVT2013
  0
DICTIONARY
  5
63
102
{ACAD_REACTORS
330
C
102
}
330
C
100
AcDbDictionary
281
     1
  0
DICTIONARY
  5
6B
102
{ACAD_REACTORS
330
C
102
}
330
C
100
AcDbDictionary
281
     1
  3
Imperial24
350
6C
  0
DICTIONARY
  5
D
102
{ACAD_REACTORS
330
C
102
}
330
C
100
AcDbDictionary
281
     1
  0
RASTERVARIABLES
  5
7B
102
{ACAD_REACTORS
330
C
102
}
330
C
100
AcDbRasterVariables
 90
        0
 70
     0
 71
     1
 72
     1
  0
DICTIONARY
  5
62
102
{ACAD_REACTORS
330
C
102
}
330
C
100
AcDbDictionary
281
     1
  3
Layout1
350
70
  3
Layout2
350
78
  3
Model
350
74
  0
DICTIONARY
  5
10
102
{ACAD_REACTORS
330
C
102
}
330
C
100
AcDbDictionary
281
     1
  3
ByBlock
350
19
  3
ByLayer
350
11
  3
Global
350
21
  0
DICTIONARY
  5
66
102
{ACAD_REACTORS
330
C
102
}
330
C
100
AcDbDictionary
281
     1
  3
Standard
350
67
  0
DICTIONARY
  5
5F
102
{ACAD_REACTORS
330
C
102
}
330
C
100
AcDbDictionary
281
     1
  3
Standard
350
60
  0
DICTIONARY
  5
61
102
{ACAD_REACTORS
330
C
102
}
330
C
100
AcDbDictionary
281
     1
  0
ACDBDICTIONARYWDFLT
  5
E
102
{ACAD_REACTORS
330
C
102
}
330
C
100
AcDbDictionary
281
     1
  3
Normal
350
F
100
AcDbDictionaryWithDefault
340
F
  0
DICTIONARY
  5
42
102
{ACAD_REACTORS
330
C
102
}
330
C
100
AcDbDictionary
281
     1
  3
A0
350
43
  3
A1
350
44
  3
A2
350
45
  3
A3
350
46
  3
A4
350
47
  3
A5
350
48
  3
A6
350
49
  3
A7
350
4A
  3
A8
350
4B
  3
A9
350
4C
  3
B0
350
4D
  3
B1
350
4E
  3
B2
350
4F
  3
B3
350
50
  3
B4
350
51
  3
B5
350
52
  3
B6
350
53
  0
DICTIONARY
  5
68
102
{ACAD_REACTORS
330
C
102
}
330
C
100
AcDbDictionary
281
     1
  3
Imperial24
350
6A
  0
DICTIONARY
  5
64
102
{ACAD_REACTORS
330
C
102
}
330
C
100
AcDbDictionary
281
     1
  3
Standard
350
65
  0
DICTIONARY
  5
29
102
{ACAD_REACTORS
330
C
102
}
330
C
100
AcDbDictionary
281
     1
  3
2dWireframe
350
2F
  3
Basic
350
2E
  3
Brighten
350
35
  3
ColorChange
350
39
  3
Conceptual
350
32
  3
Dim
350
34
  3
EdgeColorOff
350
41
  3
Facepattern
350
38
  3
Flat
350
2A
  3
FlatWithEdges
350
2B
  3
Gouraud
350
2C
  3
GouraudWithEdges
350
2D
  3
Hidden
350
31
  3
JitterOff
350
3F
  3
Linepattern
350
37
  3
OverhangOff
350
40
  3
Realistic
350
33
  3
Shaded
350
3E
  3
Shaded with edges
350
3D
  3
Shades of Gray
350
3A
  3
Sketchy
350
3B
  3
Thicken
350
36
  3
Wireframe
350
30
  3
X-Ray
350
3C
  0
XRECORD
  5
2B0
102
{ACAD_REACTORS
330
C
102
}
330
C
100
AcDbXrecord
280
     1
 90
        1
330
65
  0
DICTIONARY
  5
7C
102
{ACAD_REACTORS
330
C
102
}
330
C
100
AcDbDictionary
281
     1
  3
CANNOSCALE
350
81
  3
CMLEADERSTYLE
350
7E
  3
CTABLESTYLE
350
7D
  3
CVIEWDETAILSTYLE
350
7F
  3
CVIEWSECTIONSTYLE
350
80
  0
DICTIONARY
  5
2A7
102
{ACAD_REACTORS
330
C
102
}
330
C
100
AcDbDictionary
281
     1
  3
DRAWING_TOOL
350
2AB
  3
REVIT_CATEGORY_MAPPING
350
2A9
  3
REVIT_SUB_CATEGORY_MAPPING
350
2AA
  3
REVIT_TYPE_MAPPING
350
2A8
  0
SORTENTSTABLE
  5
2AD
102
{ACAD_REACTORS
330
2AC
102
}
330
2AC
100
AcDbSortentsTable
330
71
  0
ACDBDETAILVIEWSTYLE
  5
6C
102
{ACAD_REACTORS
330
6B
102
}
330
6B
100
AcDbModelDocViewStyle
 70
     0
  3
Imperial24
290
     1
100
AcDbDetailViewStyle
 70
     0
 71
     0
 90
        3
 71
     1
340
55
 62
   256
 40
0.24
340
0
 62
   256
 40
0.24
300

 40
0.36
280
     3
 71
     2
340
5D
 90
       25
 62
   256
 71
     3
340
55
 62
   256
 40
0.24
 90
        1
 40
0.75
 90
        1
300
%<\AcVar ViewType \f "%tc1">% %<\AcVar ViewDetailId>%\PSCALA %<\AcVar ViewScale \f "%sn">%
 71
     4
340
5D
 90
       25
 62
   256
340
5D
 90
       25
 62
   256
280
     0
  0
LAYOUT
  5
70
102
{ACAD_REACTORS
330
62
102
}
330
62
100
AcDbPlotSettings
  1

  2

  4

  6

 40
0.0
 41
0.0
 42
0.0
 43
0.0
 44
0.0
 45
0.0
 46
0.0
 47
0.0
 48
0.0
 49
0.0
140
0.0
141
0.0
142
1.0
143
1.0
 70
   688
 72
     0
 73
     0
 74
     5
  7

 75
    16
147
1.0
 76
     0
 77
     2
 78
   300
148
0.0
149
0.0
100
AcDbLayout
  1
Layout1
 70
     1
 71
     1
 10
0.0
 20
0.0
 11
12.0
 21
9.0
 12
0.0
 22
0.0
 32
0.0
 14
0.0
 24
0.0
 34
0.0
 15
0.0
 25
0.0
 35
0.0
146
0.0
 13
0.0
 23
0.0
 33
0.0
 16
1.0
 26
0.0
 36
0.0
 17
0.0
 27
1.0
 37
0.0
 76
     0
330
6D
  0
LAYOUT
  5
78
102
{ACAD_REACTORS
330
62
102
}
330
62
100
AcDbPlotSettings
  1

  2

  4

  6

 40
0.0
 41
0.0
 42
0.0
 43
0.0
 44
0.0
 45
0.0
 46
0.0
 47
0.0
 48
0.0
 49
0.0
140
0.0
141
0.0
142
1.0
143
1.0
 70
   688
 72
     0
 73
     0
 74
     5
  7

 75
    16
147
1.0
 76
     0
 77
     2
 78
   300
148
0.0
149
0.0
100
AcDbLayout
  1
Layout2
 70
     1
 71
     2
 10
0.0
 20
0.0
 11
12.0
 21
9.0
 12
0.0
 22
0.0
 32
0.0
 14
0.0
 24
0.0
 34
0.0
 15
0.0
 25
0.0
 35
0.0
146
0.0
 13
0.0
 23
0.0
 33
0.0
 16
1.0
 26
0.0
 36
0.0
 17
0.0
 27
1.0
 37
0.0
 76
     0
330
75
  0
LAYOUT
  5
74
102
{ACAD_REACTORS
330
62
102
}
330
62
100
AcDbPlotSettings
  1

  2

  4

  6

 40
0.0
 41
0.0
 42
0.0
 43
0.0
 44
0.0
 45
0.0
 46
0.0
 47
0.0
 48
0.0
 49
0.0
140
0.0
141
0.0
142
1.0
143
1.0
 70
  1712
 72
     0
 73
     0
 74
     0
  7

 75
     0
147
1.0
 76
     0
 77
     2
 78
   300
148
0.0
149
0.0
100
AcDbLayout
  1
Model
 70
     1
 71
     0
 10
0.0
 20
0.0
 11
12.0
 21
9.0
 12
0.0
 22
0.0
 32
0.0
 14
0.0
 24
0.0
 34
0.0
 15
0.0
 25
0.0
 35
0.0
146
0.0
 13
0.0
 23
0.0
 33
0.0
 16
1.0
 26
0.0
 36
0.0
 17
0.0
 27
1.0
 37
0.0
 76
     0
330
71
  0
MATERIAL
  5
19
102
{ACAD_XDICTIONARY
360
1A
102
}
102
{ACAD_REACTORS
330
10
102
}
330
10
100
AcDbMaterial
  1
ByBlock
 72
     0
 43
0.0208333333333333
 43
0.0
 43
0.0
 43
0.0
 43
0.0
 43
0.0208333333333333
 43
0.0
 43
0.0
 43
0.0
 43
0.0
 43
1.0
 43
0.0
 43
0.0
 43
0.0
 43
0.0
 43
1.0
 77
     0
 47
0.0208333333333333
 47
0.0
 47
0.0
 47
0.0
 47
0.0
 47
0.0208333333333333
 47
0.0
 47
0.0
 47
0.0
 47
0.0
 47
1.0
 47
0.0
 47
0.0
 47
0.0
 47
0.0
 47
1.0
171
     0
 49
0.0208333333333333
 49
0.0
 49
0.0
 49
0.0
 49
0.0
 49
0.0208333333333333
 49
0.0
 49
0.0
 49
0.0
 49
0.0
 49
1.0
 49
0.0
 49
0.0
 49
0.0
 49
0.0
 49
1.0
175
     0
142
0.0208333333333333
142
0.0
142
0.0
142
0.0
142
0.0
142
0.0208333333333333
142
0.0
142
0.0
142
0.0
142
0.0
142
1.0
142
0.0
142
0.0
142
0.0
142
0.0
142
1.0
179
     0
144
0.0208333333333333
144
0.0
144
0.0
144
0.0
144
0.0
144
0.0208333333333333
144
0.0
144
0.0
144
0.0
144
0.0
144
1.0
144
0.0
144
0.0
144
0.0
144
0.0
144
1.0
147
0.0208333333333333
147
0.0
147
0.0
147
0.0
147
0.0
147
0.0208333333333333
147
0.0
147
0.0
147
0.0
147
0.0
147
1.0
147
0.0
147
0.0
147
0.0
147
0.0
147
1.0
  0
MATERIAL
  5
11
102
{ACAD_XDICTIONARY
360
12
102
}
102
{ACAD_REACTORS
330
10
102
}
330
10
100
AcDbMaterial
  1
ByLayer
 72
     0
 43
0.0208333333333333
 43
0.0
 43
0.0
 43
0.0
 43
0.0
 43
0.0208333333333333
 43
0.0
 43
0.0
 43
0.0
 43
0.0
 43
1.0
 43
0.0
 43
0.0
 43
0.0
 43
0.0
 43
1.0
 77
     0
 47
0.0208333333333333
 47
0.0
 47
0.0
 47
0.0
 47
0.0
 47
0.0208333333333333
 47
0.0
 47
0.0
 47
0.0
 47
0.0
 47
1.0
 47
0.0
 47
0.0
 47
0.0
 47
0.0
 47
1.0
171
     0
 49
0.0208333333333333
 49
0.0
 49
0.0
 49
0.0
 49
0.0
 49
0.0208333333333333
 49
0.0
 49
0.0
 49
0.0
 49
0.0
 49
1.0
 49
0.0
 49
0.0
 49
0.0
 49
0.0
 49
1.0
175
     0
142
0.0208333333333333
142
0.0
142
0.0
142
0.0
142
0.0
142
0.0208333333333333
142
0.0
142
0.0
142
0.0
142
0.0
142
1.0
142
0.0
142
0.0
142
0.0
142
0.0
142
1.0
179
     0
144
0.0208333333333333
144
0.0
144
0.0
144
0.0
144
0.0
144
0.0208333333333333
144
0.0
144
0.0
144
0.0
144
0.0
144
1.0
144
0.0
144
0.0
144
0.0
144
0.0
144
1.0
147
0.0208333333333333
147
0.0
147
0.0
147
0.0
147
0.0
147
0.0208333333333333
147
0.0
147
0.0
147
0.0
147
0.0
147
1.0
147
0.0
147
0.0
147
0.0
147
0.0
147
1.0
  0
MATERIAL
  5
21
102
{ACAD_XDICTIONARY
360
22
102
}
102
{ACAD_REACTORS
330
10
102
}
330
10
100
AcDbMaterial
  1
Global
 72
     0
 43
0.0208333333333333
 43
0.0
 43
0.0
 43
0.0
 43
0.0
 43
0.0208333333333333
 43
0.0
 43
0.0
 43
0.0
 43
0.0
 43
1.0
 43
0.0
 43
0.0
 43
0.0
 43
0.0
 43
1.0
 77
     0
 47
0.0208333333333333
 47
0.0
 47
0.0
 47
0.0
 47
0.0
 47
0.0208333333333333
 47
0.0
 47
0.0
 47
0.0
 47
0.0
 47
1.0
 47
0.0
 47
0.0
 47
0.0
 47
0.0
 47
1.0
171
     0
 49
0.0208333333333333
 49
0.0
 49
0.0
 49
0.0
 49
0.0
 49
0.0208333333333333
 49
0.0
 49
0.0
 49
0.0
 49
0.0
 49
1.0
 49
0.0
 49
0.0
 49
0.0
 49
0.0
 49
1.0
175
     0
142
0.0208333333333333
142
0.0
142
0.0
142
0.0
142
0.0
142
0.0208333333333333
142
0.0
142
0.0
142
0.0
142
0.0
142
1.0
142
0.0
142
0.0
142
0.0
142
0.0
142
1.0
179
     0
144
0.0208333333333333
144
0.0
144
0.0
144
0.0
144
0.0
144
0.0208333333333333
144
0.0
144
0.0
144
0.0
144
0.0
144
1.0
144
0.0
144
0.0
144
0.0
144
0.0
144
1.0
147
0.0208333333333333
147
0.0
147
0.0
147
0.0
147
0.0
147
0.0208333333333333
147
0.0
147
0.0
147
0.0
147
0.0
147
1.0
147
0.0
147
0.0
147
0.0
147
0.0
147
1.0
  0
MLEADERSTYLE
  5
67
102
{ACAD_REACTORS
330
66
102
}
330
66
100
AcDbMLeaderStyle
179
     2
170
     2
171
     1
172
     0
 90
        2
 40
0.0
 41
0.0
173
     1
 91
-1056964608
340
5B
 92
       -2
290
     1
 42
0.09
291
     1
 43
0.36
  3
Standard
 44
0.18
300

342
55
174
     1
178
     6
175
     1
176
     0
 93
-1056964608
 45
0.18
292
     0
297
     0
 46
0.18
 94
-1056964608
 47
1.0
 49
1.0
140
1.0
293
     1
141
0.0
294
     1
177
     0
142
1.0
295
     1
296
     0
143
0.125
271
     0
272
     9
273
     9
298
     1
  0
MLINESTYLE
  5
60
102
{ACAD_REACTORS
330
5F
102
}
330
5F
100
AcDbMlineStyle
  2
STANDARD
 70
     0
  3

 62
   256
 51
90.0
 52
90.0
 71
     2
 49
0.5
 62
   256
  6
BYLAYER
 49
-0.5
 62
   256
  6
BYLAYER
  0
ACDBPLACEHOLDER
  5
F
102
{ACAD_REACTORS
330
E
102
}
330
E
  0
SCALE
  5
43
102
{ACAD_REACTORS
330
42
102
}
330
42
100
AcDbScale
 70
     0
300
1:1
140
1.0
141
1.0
290
     1
  0
SCALE
  5
44
102
{ACAD_REACTORS
330
42
102
}
330
42
100
AcDbScale
 70
     0
300
1/128" = 1'-0"
140
0.0078125
141
12.0
290
     0
  0
SCALE
  5
45
102
{ACAD_REACTORS
330
42
102
}
330
42
100
AcDbScale
 70
     0
300
1/64" = 1'-0"
140
0.015625
141
12.0
290
     0
  0
SCALE
  5
46
102
{ACAD_REACTORS
330
42
102
}
330
42
100
AcDbScale
 70
     0
300
1/32" = 1'-0"
140
0.03125
141
12.0
290
     0
  0
SCALE
  5
47
102
{ACAD_REACTORS
330
42
102
}
330
42
100
AcDbScale
 70
     0
300
1/16" = 1'-0"
140
0.0625
141
12.0
290
     0
  0
SCALE
  5
48
102
{ACAD_REACTORS
330
42
102
}
330
42
100
AcDbScale
 70
     0
300
3/32" = 1'-0"
140
0.09375
141
12.0
290
     0
  0
SCALE
  5
49
102
{ACAD_REACTORS
330
42
102
}
330
42
100
AcDbScale
 70
     0
300
1/8" = 1'-0"
140
0.125
141
12.0
290
     0
  0
SCALE
  5
4A
102
{ACAD_REACTORS
330
42
102
}
330
42
100
AcDbScale
 70
     0
300
3/16" = 1'-0"
140
0.1875
141
12.0
290
     0
  0
SCALE
  5
4B
102
{ACAD_REACTORS
330
42
102
}
330
42
100
AcDbScale
 70
     0
300
1/4" = 1'-0"
140
0.25
141
12.0
290
     0
  0
SCALE
  5
4C
102
{ACAD_REACTORS
330
42
102
}
330
42
100
AcDbScale
 70
     0
300
3/8" = 1'-0"
140
0.375
141
12.0
290
     0
  0
SCALE
  5
4D
102
{ACAD_REACTORS
330
42
102
}
330
42
100
AcDbScale
 70
     0
300
1/2" = 1'-0"
140
0.5
141
12.0
290
     0
  0
SCALE
  5
4E
102
{ACAD_REACTORS
330
42
102
}
330
42
100
AcDbScale
 70
     0
300
3/4" = 1'-0"
140
0.75
141
12.0
290
     0
  0
SCALE
  5
4F
102
{ACAD_REACTORS
330
42
102
}
330
42
100
AcDbScale
 70
     0
300
1" = 1'-0"
140
1.0
141
12.0
290
     0
  0
SCALE
  5
50
102
{ACAD_REACTORS
330
42
102
}
330
42
100
AcDbScale
 70
     0
300
1-1/2" = 1'-0"
140
1.5
141
12.0
290
     0
  0
SCALE
  5
51
102
{ACAD_REACTORS
330
42
102
}
330
42
100
AcDbScale
 70
     0
300
3" = 1'-0"
140
3.0
141
12.0
290
     0
  0
SCALE
  5
52
102
{ACAD_REACTORS
330
42
102
}
330
42
100
AcDbScale
 70
     0
300
6" = 1'-0"
140
6.0
141
12.0
290
     0
  0
SCALE
  5
53
102
{ACAD_REACTORS
330
42
102
}
330
42
100
AcDbScale
 70
     0
300
1'-0" = 1'-0"
140
12.0
141
12.0
290
     0
  0
ACDBSECTIONVIEWSTYLE
  5
6A
102
{ACAD_REACTORS
330
68
102
}
330
68
100
AcDbModelDocViewStyle
 70
     0
  3
Imperial24
290
     1
100
AcDbSectionViewStyle
 70
     0
 71
     0
 90
       78
 71
     1
340
55
 62
   256
 40
0.24
340
0
340
0
 62
   256
 40
0.24
300
I, O, Q, S, X, Z
 40
0.48
 90
        3
 40
0.18
 90
        1
 71
     2
340
69
 90
       25
 62
   256
340
5D
 90
       50
 62
   256
 40
0.24
 40
0.0
 40
0.24
 71
     3
340
55
 62
   256
 40
0.24
 90
        1
 40
0.75
 90
        1
300
%<\AcVar ViewType \f "%tc1">% %<\AcVar ViewSectionStartId>%-%<\AcVar ViewSectionEndId>%\PSCALA %<\AcVar ViewScale \f "%sn">%
 71
     4
 62
   256
 62
   257
300
ANSI31
 40
1.0
 90
        0
290
     0
290
     0
 90
        6
 40
0.0
 40
1.570796326794896
 40
0.2617993877991494
 40
1.308996938995747
 40
-0.2617993877991494
 40
1.832595714594046
  0
TABLESTYLE
  5
65
102
{ACAD_XDICTIONARY
360
2AE
102
}
102
{ACAD_REACTORS
330
64
102
}
330
64
100
AcDbTableStyle
280
     0
  3
Standard
 70
     0
 71
     0
 40
0.06
 41
0.06
280
     0
281
     0
  7
Standard
140
0.18
170
     2
 62
     0
 63
     7
283
     0
 90
      512
 91
        0
  1

274
    -2
284
     1
 64
     0
275
    -2
285
     1
 65
     0
276
    -2
286
     1
 66
     0
277
    -2
287
     1
 67
     0
278
    -2
288
     1
 68
     0
279
    -2
289
     1
 69
     0
  7
Standard
140
0.25
170
     5
 62
     0
 63
     7
283
     0
 90
      512
 91
        0
  1

274
    -2
284
     1
 64
     0
275
    -2
285
     1
 65
     0
276
    -2
286
     1
 66
     0
277
    -2
287
     1
 67
     0
278
    -2
288
     1
 68
     0
279
    -2
289
     1
 69
     0
  7
Standard
140
0.18
170
     5
 62
     0
 63
     7
283
     0
 90
      512
 91
        0
  1

274
    -2
284
     1
 64
     0
275
    -2
285
     1
 65
     0
276
    -2
286
     1
 66
     0
277
    -2
287
     1
 67
     0
278
    -2
288
     1
 68
     0
279
    -2
289
     1
 69
     0
  0
VISUALSTYLE
  5
2F
102
{ACAD_REACTORS
330
29
102
}
330
29
100
AcDbVisualStyle
  2
2dWireframe
 70
     4
177
     3
291
     0
 70
    58
 90
        0
176
     1
 90
        2
176
     1
 90
        0
176
     1
 90
        0
176
     1
 40
0.6
176
     1
 40
30.0
176
     1
 62
     7
420
 16777215
176
     1
 90
        1
176
     1
 90
        4
176
     1
 62
     7
176
     1
 62
   257
176
     1
 90
        1
176
     1
 90
        1
176
     1
 40
1.0
176
     1
 90
        0
176
     1
 62
   257
176
     1
 40
1.0
176
     1
 90
        1
176
     1
 90
        6
176
     1
 90
        2
176
     1
 62
     7
176
     1
 90
        5
176
     1
 90
        0
176
     1
 90
        0
176
     1
290
     0
176
     1
 90
        1
176
     1
 40
0.0
176
     1
 90
        0
176
     1
290
     1
176
     1
290
     1
176
     1
290
     0
176
     1
290
     0
176
     1
290
     0
176
     1
290
     0
176
     1
290
     0
176
     1
290
     0
176
     1
290
     0
176
     1
 90
       50
176
     1
 40
0.0
176
     1
 40
1.0
176
     1
 90
        0
176
     1
 62
    18
420
        0
176
     1
 90
       50
176
     1
 90
        3
176
     1
 62
     5
420
      255
176
     1
290
     0
176
     1
 90
       50
176
     1
 90
       50
176
     1
 90
       50
176
     1
290
     0
176
     1
 90
       50
176
     1
 62
   256
176
     0
 40
1.0
176
     0
 90
        2
176
     1
  1
strokes_ogs.tif
176
     1
290
     0
176
     1
 40
1.0
176
     1
 40
1.0
176
     1
  0
VISUALSTYLE
  5
2E
102
{ACAD_REACTORS
330
29
102
}
330
29
100
AcDbVisualStyle
  2
Basic
 70
     7
177
     3
291
     1
 70
    58
 90
        1
176
     1
 90
        0
176
     1
 90
        1
176
     1
 90
        0
176
     1
 40
0.6
176
     1
 40
30.0
176
     1
 62
     7
420
 16777215
176
     1
 90
        0
176
     1
 90
        4
176
     1
 62
     7
176
     1
 62
   257
176
     1
 90
        1
176
     1
 90
        1
176
     1
 40
1.0
176
     1
 90
        8
176
     1
 62
     7
176
     1
 40
1.0
176
     1
 90
        1
176
     1
 90
        6
176
     1
 90
        2
176
     1
 62
     7
176
     1
 90
        5
176
     1
 90
        0
176
     1
 90
        0
176
     1
290
     0
176
     1
 90
        1
176
     1
 40
0.0
176
     1
 90
        0
176
     1
290
     0
176
     1
290
     1
176
     1
290
     1
176
     1
290
     0
176
     1
290
     0
176
     1
290
     0
176
     1
290
     0
176
     1
290
     0
176
     1
290
     0
176
     1
 90
       50
176
     1
 40
0.0
176
     1
 40
1.0
176
     1
 90
        0
176
     1
 62
    18
420
        0
176
     1
 90
       50
176
     1
 90
        3
176
     1
 62
     5
420
      255
176
     1
290
     0
176
     1
 90
       50
176
     1
 90
       50
176
     1
 90
       50
176
     1
290
     0
176
     1
 90
       50
176
     1
 62
   256
176
     0
 40
1.0
176
     0
 90
        2
176
     1
  1
strokes_ogs.tif
176
     1
290
     0
176
     1
 40
1.0
176
     1
 40
1.0
176
     1
  0
VISUALSTYLE
  5
35
102
{ACAD_REACTORS
330
29
102
}
330
29
100
AcDbVisualStyle
  2
Brighten
 70
    12
177
     3
291
     1
 70
    58
 90
        2
176
     1
 90
        2
176
     1
 90
        0
176
     1
 90
        0
176
     1
 40
0.6
176
     1
 40
30.0
176
     1
 62
     7
420
 16777215
176
     1
 90
        1
176
     1
 90
        4
176
     1
 62
     7
176
     1
 62
   257
176
     1
 90
        1
176
     1
 90
        1
176
     1
 40
1.0
176
     1
 90
        8
176
     1
 62
     7
176
     1
 40
1.0
176
     1
 90
        1
176
     1
 90
        6
176
     1
 90
        2
176
     1
 62
     7
176
     1
 90
        5
176
     1
 90
        0
176
     1
 90
        0
176
     1
290
     0
176
     1
 90
        1
176
     1
 40
50.0
176
     1
 90
        0
176
     1
290
     0
176
     1
290
     1
176
     1
290
     1
176
     1
290
     0
176
     1
290
     0
176
     1
290
     0
176
     1
290
     0
176
     1
290
     0
176
     1
290
     0
176
     1
 90
       50
176
     1
 40
0.0
176
     1
 40
1.0
176
     1
 90
        0
176
     1
 62
    18
420
        0
176
     1
 90
       50
176
     1
 90
        3
176
     1
 62
     5
420
      255
176
     1
290
     0
176
     1
 90
       50
176
     1
 90
       50
176
     1
 90
       50
176
     1
290
     0
176
     1
 90
       50
176
     1
 62
   256
176
     0
 40
1.0
176
     0
 90
        2
176
     1
  1
strokes_ogs.tif
176
     1
290
     0
176
     1
 40
1.0
176
     1
 40
1.0
176
     1
  0
VISUALSTYLE
  5
39
102
{ACAD_REACTORS
330
29
102
}
330
29
100
AcDbVisualStyle
  2
ColorChange
 70
    16
177
     3
291
     1
 70
    58
 90
        2
176
     1
 90
        2
176
     1
 90
        3
176
     1
 90
        0
176
     1
 40
0.6
176
     1
 40
30.0
176
     1
 62
     8
420
  8421504
176
     1
 90
        1
176
     1
 90
        4
176
     1
 62
     7
176
     1
 62
   257
176
     1
 90
        1
176
     1
 90
        1
176
     1
 40
1.0
176
     1
 90
        8
176
     1
 62
     8
420
  8421504
176
     1
 40
1.0
176
     1
 90
        1
176
     1
 90
        6
176
     1
 90
        2
176
     1
 62
     7
176
     1
 90
        5
176
     1
 90
        0
176
     1
 90
        0
176
     1
290
     0
176
     1
 90
        1
176
     1
 40
0.0
176
     1
 90
        0
176
     1
290
     0
176
     1
290
     1
176
     1
290
     1
176
     1
290
     0
176
     1
290
     0
176
     1
290
     0
176
     1
290
     0
176
     1
290
     0
176
     1
290
     0
176
     1
 90
       50
176
     1
 40
0.0
176
     1
 40
1.0
176
     1
 90
        0
176
     1
 62
    18
420
        0
176
     1
 90
       50
176
     1
 90
        3
176
     1
 62
     5
420
      255
176
     1
290
     0
176
     1
 90
       50
176
     1
 90
       50
176
     1
 90
       50
176
     1
290
     0
176
     1
 90
       50
176
     1
 62
   256
176
     0
 40
1.0
176
     0
 90
        2
176
     1
  1
strokes_ogs.tif
176
     1
290
     0
176
     1
 40
1.0
176
     1
 40
1.0
176
     1
  0
VISUALSTYLE
  5
32
102
{ACAD_REACTORS
330
29
102
}
330
29
100
AcDbVisualStyle
  2
Conceptual
 70
     9
177
     3
291
     0
 70
    58
 90
        3
176
     1
 90
        2
176
     1
 90
        0
176
     1
 90
        0
176
     1
 40
0.6
176
     1
 40
30.0
176
     1
 62
     7
420
 16777215
176
     1
 90
        2
176
     1
 90
        2
176
     1
 62
     7
176
     1
 62
   257
176
     1
 90
        1
176
     1
 90
        1
176
     1
 40
179.0
176
     1
 90
        8
176
     1
 62
     7
176
     1
 40
1.0
176
     1
 90
        1
176
     1
 90
        6
176
     1
 90
        2
176
     1
 62
     7
176
     1
 90
        3
176
     1
 90
        0
176
     1
 90
        0
176
     1
290
     0
176
     1
 90
        1
176
     1
 40
0.0
176
     1
 90
        0
176
     1
290
     0
176
     1
290
     1
176
     1
290
     1
176
     1
290
     0
176
     1
290
     0
176
     1
290
     0
176
     1
290
     0
176
     1
290
     0
176
     1
290
     0
176
     1
 90
       50
176
     1
 40
0.0
176
     1
 40
1.0
176
     1
 90
        0
176
     1
 62
    18
420
        0
176
     1
 90
       50
176
     1
 90
        3
176
     1
 62
     5
420
      255
176
     1
290
     0
176
     1
 90
       50
176
     1
 90
       50
176
     1
 90
       50
176
     1
290
     0
176
     1
 90
       50
176
     1
 62
   256
176
     0
 40
1.0
176
     0
 90
        2
176
     1
  1
strokes_ogs.tif
176
     1
290
     0
176
     1
 40
1.0
176
     1
 40
1.0
176
     1
  0
VISUALSTYLE
  5
34
102
{ACAD_REACTORS
330
29
102
}
330
29
100
AcDbVisualStyle
  2
Dim
 70
    11
177
     3
291
     1
 70
    58
 90
        2
176
     1
 90
        2
176
     1
 90
        0
176
     1
 90
        0
176
     1
 40
0.6
176
     1
 40
30.0
176
     1
 62
     7
420
 16777215
176
     1
 90
        1
176
     1
 90
        4
176
     1
 62
     7
176
     1
 62
   257
176
     1
 90
        1
176
     1
 90
        1
176
     1
 40
1.0
176
     1
 90
        8
176
     1
 62
     7
176
     1
 40
1.0
176
     1
 90
        1
176
     1
 90
        6
176
     1
 90
        2
176
     1
 62
     7
176
     1
 90
        5
176
     1
 90
        0
176
     1
 90
        0
176
     1
290
     0
176
     1
 90
        1
176
     1
 40
-50.0
176
     1
 90
        0
176
     1
290
     0
176
     1
290
     1
176
     1
290
     1
176
     1
290
     0
176
     1
290
     0
176
     1
290
     0
176
     1
290
     0
176
     1
290
     0
176
     1
290
     0
176
     1
 90
       50
176
     1
 40
0.0
176
     1
 40
1.0
176
     1
 90
        0
176
     1
 62
    18
420
        0
176
     1
 90
       50
176
     1
 90
        3
176
     1
 62
     5
420
      255
176
     1
290
     0
176
     1
 90
       50
176
     1
 90
       50
176
     1
 90
       50
176
     1
290
     0
176
     1
 90
       50
176
     1
 62
   256
176
     0
 40
1.0
176
     0
 90
        2
176
     1
  1
strokes_ogs.tif
176
     1
290
     0
176
     1
 40
1.0
176
     1
 40
1.0
176
     1
  0
VISUALSTYLE
  5
41
102
{ACAD_REACTORS
330
29
102
}
330
29
100
AcDbVisualStyle
  2
EdgeColorOff
 70
    22
177
     3
291
     1
 70
    58
 90
        2
176
     0
 90
        2
176
     0
 90
        0
176
     0
 90
        0
176
     0
 40
0.6
176
     0
 40
30.0
176
     0
 62
     7
420
 16777215
176
     0
 90
        1
176
     0
 90
        4
176
     0
 62
     7
176
     0
 62
   257
176
     0
 90
        1
176
     0
 90
        1
176
     0
 40
1.0
176
     0
 90
        8
176
     2
 62
     7
176
     0
 40
1.0
176
     0
 90
        1
176
     0
 90
        6
176
     0
 90
        2
176
     0
 62
     7
176
     0
 90
        5
176
     0
 90
        0
176
     0
 90
        0
176
     0
290
     0
176
     0
 90
        1
176
     0
 40
0.0
176
     0
 90
        0
176
     0
290
     0
176
     0
290
     1
176
     0
290
     1
176
     0
290
     0
176
     0
290
     0
176
     0
290
     0
176
     0
290
     0
176
     0
290
     0
176
     0
290
     0
176
     0
 90
       50
176
     0
 40
0.0
176
     0
 40
1.0
176
     0
 90
        0
176
     0
 62
    18
420
        0
176
     0
 90
       50
176
     0
 90
        3
176
     0
 62
     5
420
      255
176
     0
290
     0
176
     0
 90
       50
176
     0
 90
       50
176
     0
 90
       50
176
     0
290
     0
176
     0
 90
       50
176
     0
 62
   256
176
     0
 40
1.0
176
     0
 90
        2
176
     0
  1
strokes_ogs.tif
176
     0
290
     0
176
     0
 40
1.0
176
     0
 40
1.0
176
     0
  0
VISUALSTYLE
  5
38
102
{ACAD_REACTORS
330
29
102
}
330
29
100
AcDbVisualStyle
  2
Facepattern
 70
    15
177
     3
291
     1
 70
    58
 90
        2
176
     1
 90
        2
176
     1
 90
        0
176
     1
 90
        0
176
     1
 40
0.6
176
     1
 40
30.0
176
     1
 62
     7
420
 16777215
176
     1
 90
        1
176
     1
 90
        4
176
     1
 62
     7
176
     1
 62
   257
176
     1
 90
        1
176
     1
 90
        1
176
     1
 40
1.0
176
     1
 90
        8
176
     1
 62
     7
176
     1
 40
1.0
176
     1
 90
        1
176
     1
 90
        6
176
     1
 90
        2
176
     1
 62
     7
176
     1
 90
        5
176
     1
 90
        0
176
     1
 90
        0
176
     1
290
     0
176
     1
 90
        1
176
     1
 40
0.0
176
     1
 90
        0
176
     1
290
     0
176
     1
290
     1
176
     1
290
     1
176
     1
290
     0
176
     1
290
     0
176
     1
290
     0
176
     1
290
     0
176
     1
290
     0
176
     1
290
     0
176
     1
 90
       50
176
     1
 40
0.0
176
     1
 40
1.0
176
     1
 90
        0
176
     1
 62
    18
420
        0
176
     1
 90
       50
176
     1
 90
        3
176
     1
 62
     5
420
      255
176
     1
290
     0
176
     1
 90
       50
176
     1
 90
       50
176
     1
 90
       50
176
     1
290
     0
176
     1
 90
       50
176
     1
 62
   256
176
     0
 40
1.0
176
     0
 90
        2
176
     1
  1
strokes_ogs.tif
176
     1
290
     0
176
     1
 40
1.0
176
     1
 40
1.0
176
     1
  0
VISUALSTYLE
  5
2A
102
{ACAD_REACTORS
330
29
102
}
330
29
100
AcDbVisualStyle
  2
Flat
 70
     0
177
     3
291
     1
 70
    58
 90
        2
176
     1
 90
        1
176
     1
 90
        1
176
     1
 90
        2
176
     1
 40
0.6
176
     1
 40
30.0
176
     1
 62
     7
420
 16777215
176
     1
 90
        0
176
     1
 90
        0
176
     1
 62
     7
176
     1
 62
   257
176
     1
 90
        1
176
     1
 90
        1
176
     1
 40
1.0
176
     1
 90
        8
176
     1
 62
     7
176
     1
 40
1.0
176
     1
 90
        1
176
     1
 90
        6
176
     1
 90
        2
176
     1
 62
     7
176
     1
 90
        5
176
     1
 90
        0
176
     1
 90
        0
176
     1
290
     0
176
     1
 90
       13
176
     1
 40
0.0
176
     1
 90
        0
176
     1
290
     0
176
     1
290
     1
176
     1
290
     1
176
     1
290
     0
176
     1
290
     0
176
     1
290
     0
176
     1
290
     0
176
     1
290
     0
176
     1
290
     0
176
     1
 90
       50
176
     1
 40
0.0
176
     1
 40
1.0
176
     1
 90
        0
176
     1
 62
    18
420
        0
176
     1
 90
       50
176
     1
 90
        3
176
     1
 62
     5
420
      255
176
     1
290
     0
176
     1
 90
       50
176
     1
 90
       50
176
     1
 90
       50
176
     1
290
     0
176
     1
 90
       50
176
     1
 62
   256
176
     0
 40
1.0
176
     0
 90
        2
176
     1
  1
strokes_ogs.tif
176
     1
290
     0
176
     1
 40
1.0
176
     1
 40
1.0
176
     1
  0
VISUALSTYLE
  5
2B
102
{ACAD_REACTORS
330
29
102
}
330
29
100
AcDbVisualStyle
  2
FlatWithEdges
 70
     1
177
     3
291
     1
 70
    58
 90
        2
176
     1
 90
        1
176
     1
 90
        1
176
     1
 90
        2
176
     1
 40
0.6
176
     1
 40
30.0
176
     1
 62
     7
420
 16777215
176
     1
 90
        1
176
     1
 90
        0
176
     1
 62
     7
176
     1
 62
   257
176
     1
 90
        1
176
     1
 90
        1
176
     1
 40
1.0
176
     1
 90
        0
176
     1
 62
   257
176
     1
 40
1.0
176
     1
 90
        1
176
     1
 90
        6
176
     1
 90
        2
176
     1
 62
     7
176
     1
 90
        5
176
     1
 90
        0
176
     1
 90
        0
176
     1
290
     0
176
     1
 90
       13
176
     1
 40
0.0
176
     1
 90
        0
176
     1
290
     0
176
     1
290
     1
176
     1
290
     1
176
     1
290
     0
176
     1
290
     0
176
     1
290
     0
176
     1
290
     0
176
     1
290
     0
176
     1
290
     0
176
     1
 90
       50
176
     1
 40
0.0
176
     1
 40
1.0
176
     1
 90
        0
176
     1
 62
    18
420
        0
176
     1
 90
       50
176
     1
 90
        3
176
     1
 62
     5
420
      255
176
     1
290
     0
176
     1
 90
       50
176
     1
 90
       50
176
     1
 90
       50
176
     1
290
     0
176
     1
 90
       50
176
     1
 62
   256
176
     0
 40
1.0
176
     0
 90
        2
176
     1
  1
strokes_ogs.tif
176
     1
290
     0
176
     1
 40
1.0
176
     1
 40
1.0
176
     1
  0
VISUALSTYLE
  5
2C
102
{ACAD_REACTORS
330
29
102
}
330
29
100
AcDbVisualStyle
  2
Gouraud
 70
     2
177
     3
291
     1
 70
    58
 90
        2
176
     1
 90
        2
176
     1
 90
        1
176
     1
 90
        2
176
     1
 40
0.6
176
     1
 40
30.0
176
     1
 62
     7
420
 16777215
176
     1
 90
        0
176
     1
 90
        0
176
     1
 62
     7
176
     1
 62
   257
176
     1
 90
        1
176
     1
 90
        1
176
     1
 40
1.0
176
     1
 90
        0
176
     1
 62
     7
176
     1
 40
1.0
176
     1
 90
        1
176
     1
 90
        6
176
     1
 90
        2
176
     1
 62
     7
176
     1
 90
        5
176
     1
 90
        0
176
     1
 90
        0
176
     1
290
     0
176
     1
 90
       13
176
     1
 40
0.0
176
     1
 90
        0
176
     1
290
     0
176
     1
290
     1
176
     1
290
     1
176
     1
290
     0
176
     1
290
     0
176
     1
290
     0
176
     1
290
     0
176
     1
290
     0
176
     1
290
     0
176
     1
 90
       50
176
     1
 40
0.0
176
     1
 40
1.0
176
     1
 90
        0
176
     1
 62
    18
420
        0
176
     1
 90
       50
176
     1
 90
        3
176
     1
 62
     5
420
      255
176
     1
290
     0
176
     1
 90
       50
176
     1
 90
       50
176
     1
 90
       50
176
     1
290
     0
176
     1
 90
       50
176
     1
 62
   256
176
     0
 40
1.0
176
     0
 90
        2
176
     1
  1
strokes_ogs.tif
176
     1
290
     0
176
     1
 40
1.0
176
     1
 40
1.0
176
     1
  0
VISUALSTYLE
  5
2D
102
{ACAD_REACTORS
330
29
102
}
330
29
100
AcDbVisualStyle
  2
GouraudWithEdges
 70
     3
177
     3
291
     1
 70
    58
 90
        2
176
     1
 90
        2
176
     1
 90
        1
176
     1
 90
        2
176
     1
 40
0.6
176
     1
 40
30.0
176
     1
 62
     7
420
 16777215
176
     1
 90
        1
176
     1
 90
        0
176
     1
 62
     7
176
     1
 62
   257
176
     1
 90
        1
176
     1
 90
        1
176
     1
 40
1.0
176
     1
 90
        0
176
     1
 62
   257
176
     1
 40
1.0
176
     1
 90
        1
176
     1
 90
        6
176
     1
 90
        2
176
     1
 62
     7
176
     1
 90
        5
176
     1
 90
        0
176
     1
 90
        0
176
     1
290
     0
176
     1
 90
       13
176
     1
 40
0.0
176
     1
 90
        0
176
     1
290
     0
176
     1
290
     1
176
     1
290
     1
176
     1
290
     0
176
     1
290
     0
176
     1
290
     0
176
     1
290
     0
176
     1
290
     0
176
     1
290
     0
176
     1
 90
       50
176
     1
 40
0.0
176
     1
 40
1.0
176
     1
 90
        0
176
     1
 62
    18
420
        0
176
     1
 90
       50
176
     1
 90
        3
176
     1
 62
     5
420
      255
176
     1
290
     0
176
     1
 90
       50
176
     1
 90
       50
176
     1
 90
       50
176
     1
290
     0
176
     1
 90
       50
176
     1
 62
   256
176
     0
 40
1.0
176
     0
 90
        2
176
     1
  1
strokes_ogs.tif
176
     1
290
     0
176
     1
 40
1.0
176
     1
 40
1.0
176
     1
  0
VISUALSTYLE
  5
31
102
{ACAD_REACTORS
330
29
102
}
330
29
100
AcDbVisualStyle
  2
Hidden
 70
     6
177
     3
291
     0
 70
    58
 90
        1
176
     1
 90
        2
176
     1
 90
        2
176
     1
 90
        0
176
     1
 40
0.6
176
     1
 40
30.0
176
     1
 62
     7
420
 16777215
176
     1
 90
        2
176
     1
 90
        2
176
     1
 62
     7
176
     1
 62
   257
176
     1
 90
        2
176
     1
 90
        1
176
     1
 40
40.0
176
     1
 90
        0
176
     1
 62
   257
176
     1
 40
1.0
176
     1
 90
        1
176
     1
 90
        6
176
     1
 90
        2
176
     1
 62
     7
176
     1
 90
        3
176
     1
 90
        0
176
     1
 90
        0
176
     1
290
     0
176
     1
 90
        1
176
     1
 40
0.0
176
     1
 90
        0
176
     1
290
     0
176
     1
290
     1
176
     1
290
     1
176
     1
290
     0
176
     1
290
     0
176
     1
290
     0
176
     1
290
     0
176
     1
290
     0
176
     1
290
     0
176
     1
 90
       50
176
     1
 40
0.0
176
     1
 40
1.0
176
     1
 90
        0
176
     1
 62
    18
420
        0
176
     1
 90
       50
176
     1
 90
        3
176
     1
 62
     5
420
      255
176
     1
290
     0
176
     1
 90
       50
176
     1
 90
       50
176
     1
 90
       50
176
     1
290
     0
176
     1
 90
       50
176
     1
 62
   256
176
     0
 40
1.0
176
     0
 90
        2
176
     1
  1
strokes_ogs.tif
176
     1
290
     0
176
     1
 40
1.0
176
     1
 40
1.0
176
     1
  0
VISUALSTYLE
  5
3F
102
{ACAD_REACTORS
330
29
102
}
330
29
100
AcDbVisualStyle
  2
JitterOff
 70
    20
177
     3
291
     1
 70
    58
 90
        2
176
     0
 90
        2
176
     0
 90
        0
176
     0
 90
        0
176
     0
 40
0.6
176
     0
 40
30.0
176
     0
 62
     7
420
 16777215
176
     0
 90
        1
176
     0
 90
        4
176
     0
 62
     7
176
     0
 62
   257
176
     0
 90
        1
176
     0
 90
        1
176
     0
 40
1.0
176
     0
 90
       10
176
     2
 62
     7
176
     0
 40
1.0
176
     0
 90
        1
176
     0
 90
        6
176
     0
 90
        2
176
     0
 62
     7
176
     0
 90
        5
176
     0
 90
        0
176
     0
 90
        0
176
     0
290
     0
176
     0
 90
        1
176
     0
 40
0.0
176
     0
 90
        0
176
     0
290
     0
176
     0
290
     1
176
     0
290
     1
176
     0
290
     0
176
     0
290
     0
176
     0
290
     0
176
     0
290
     0
176
     0
290
     0
176
     0
290
     0
176
     0
 90
       50
176
     0
 40
0.0
176
     0
 40
1.0
176
     0
 90
        0
176
     0
 62
    18
420
        0
176
     0
 90
       50
176
     0
 90
        3
176
     0
 62
     5
420
      255
176
     0
290
     0
176
     0
 90
       50
176
     0
 90
       50
176
     0
 90
       50
176
     0
290
     0
176
     0
 90
       50
176
     0
 62
   256
176
     0
 40
1.0
176
     0
 90
        2
176
     0
  1
strokes_ogs.tif
176
     0
290
     0
176
     0
 40
1.0
176
     0
 40
1.0
176
     0
  0
VISUALSTYLE
  5
37
102
{ACAD_REACTORS
330
29
102
}
330
29
100
AcDbVisualStyle
  2
Linepattern
 70
    14
177
     3
291
     1
 70
    58
 90
        2
176
     1
 90
        2
176
     1
 90
        0
176
     1
 90
        0
176
     1
 40
0.6
176
     1
 40
30.0
176
     1
 62
     7
420
 16777215
176
     1
 90
        1
176
     1
 90
        4
176
     1
 62
     7
176
     1
 62
   257
176
     1
 90
        7
176
     1
 90
        7
176
     1
 40
1.0
176
     1
 90
        8
176
     1
 62
     7
176
     1
 40
1.0
176
     1
 90
        1
176
     1
 90
        6
176
     1
 90
        2
176
     1
 62
     7
176
     1
 90
        5
176
     1
 90
        0
176
     1
 90
        0
176
     1
290
     0
176
     1
 90
        1
176
     1
 40
0.0
176
     1
 90
        0
176
     1
290
     0
176
     1
290
     1
176
     1
290
     1
176
     1
290
     0
176
     1
290
     0
176
     1
290
     0
176
     1
290
     0
176
     1
290
     0
176
     1
290
     0
176
     1
 90
       50
176
     1
 40
0.0
176
     1
 40
1.0
176
     1
 90
        0
176
     1
 62
    18
420
        0
176
     1
 90
       50
176
     1
 90
        3
176
     1
 62
     5
420
      255
176
     1
290
     0
176
     1
 90
       50
176
     1
 90
       50
176
     1
 90
       50
176
     1
290
     0
176
     1
 90
       50
176
     1
 62
   256
176
     0
 40
1.0
176
     0
 90
        2
176
     1
  1
strokes_ogs.tif
176
     1
290
     0
176
     1
 40
1.0
176
     1
 40
1.0
176
     1
  0
VISUALSTYLE
  5
40
102
{ACAD_REACTORS
330
29
102
}
330
29
100
AcDbVisualStyle
  2
OverhangOff
 70
    21
177
     3
291
     1
 70
    58
 90
        2
176
     0
 90
        2
176
     0
 90
        0
176
     0
 90
        0
176
     0
 40
0.6
176
     0
 40
30.0
176
     0
 62
     7
420
 16777215
176
     0
 90
        1
176
     0
 90
        4
176
     0
 62
     7
176
     0
 62
   257
176
     0
 90
        1
176
     0
 90
        1
176
     0
 40
1.0
176
     0
 90
        9
176
     2
 62
     7
176
     0
 40
1.0
176
     0
 90
        1
176
     0
 90
        6
176
     0
 90
        2
176
     0
 62
     7
176
     0
 90
        5
176
     0
 90
        0
176
     0
 90
        0
176
     0
290
     0
176
     0
 90
        1
176
     0
 40
0.0
176
     0
 90
        0
176
     0
290
     0
176
     0
290
     1
176
     0
290
     1
176
     0
290
     0
176
     0
290
     0
176
     0
290
     0
176
     0
290
     0
176
     0
290
     0
176
     0
290
     0
176
     0
 90
       50
176
     0
 40
0.0
176
     0
 40
1.0
176
     0
 90
        0
176
     0
 62
    18
420
        0
176
     0
 90
       50
176
     0
 90
        3
176
     0
 62
     5
420
      255
176
     0
290
     0
176
     0
 90
       50
176
     0
 90
       50
176
     0
 90
       50
176
     0
290
     0
176
     0
 90
       50
176
     0
 62
   256
176
     0
 40
1.0
176
     0
 90
        2
176
     0
  1
strokes_ogs.tif
176
     0
290
     0
176
     0
 40
1.0
176
     0
 40
1.0
176
     0
  0
VISUALSTYLE
  5
33
102
{ACAD_REACTORS
330
29
102
}
330
29
100
AcDbVisualStyle
  2
Realistic
 70
     8
177
     3
291
     0
 70
    58
 90
        2
176
     1
 90
        3
176
     1
 90
        0
176
     1
 90
        2
176
     1
 40
0.6
176
     1
 40
30.0
176
     1
 62
     7
420
 16777215
176
     1
 90
        0
176
     1
 90
        0
176
     1
 62
     7
176
     1
 62
   257
176
     1
 90
        1
176
     1
 90
        1
176
     1
 40
1.0
176
     1
 90
        8
176
     1
 62
   257
176
     1
 40
1.0
176
     1
 90
        1
176
     1
 90
        6
176
     1
 90
        2
176
     1
 62
     7
176
     1
 90
        3
176
     1
 90
        0
176
     1
 90
        0
176
     1
290
     0
176
     1
 90
       13
176
     1
 40
0.0
176
     1
 90
        0
176
     1
290
     0
176
     1
290
     1
176
     1
290
     1
176
     1
290
     0
176
     1
290
     0
176
     1
290
     0
176
     1
290
     0
176
     1
290
     0
176
     1
290
     0
176
     1
 90
       50
176
     1
 40
0.0
176
     1
 40
1.0
176
     1
 90
        0
176
     1
 62
    18
420
        0
176
     1
 90
       50
176
     1
 90
        3
176
     1
 62
     5
420
      255
176
     1
290
     0
176
     1
 90
       50
176
     1
 90
       50
176
     1
 90
       50
176
     1
290
     0
176
     1
 90
       50
176
     1
 62
   256
176
     0
 40
1.0
176
     0
 90
        2
176
     1
  1
strokes_ogs.tif
176
     1
290
     0
176
     1
 40
1.0
176
     1
 40
1.0
176
     1
  0
VISUALSTYLE
  5
3E
102
{ACAD_REACTORS
330
29
102
}
330
29
100
AcDbVisualStyle
  2
Shaded
 70
    27
177
     3
291
     0
 70
    58
 90
        2
176
     1
 90
        2
176
     1
 90
        1
176
     1
 90
        2
176
     1
 40
0.6
176
     1
 40
30.0
176
     1
 62
     7
420
 16777215
176
     1
 90
        0
176
     1
 90
        4
176
     1
 62
     7
176
     1
 62
   257
176
     1
 90
        1
176
     1
 90
        1
176
     1
 40
1.0
176
     1
 90
        8
176
     1
 62
   257
176
     1
 40
1.0
176
     1
 90
        1
176
     1
 90
        6
176
     1
 90
        2
176
     1
 62
     8
420
  7895160
176
     1
 90
        3
176
     1
 90
        0
176
     1
 90
        0
176
     1
290
     0
176
     1
 90
        5
176
     1
 40
0.0
176
     1
 90
        0
176
     1
290
     0
176
     1
290
     1
176
     1
290
     1
176
     1
290
     0
176
     1
290
     0
176
     1
290
     0
176
     1
290
     0
176
     1
290
     0
176
     1
290
     0
176
     1
 90
       50
176
     1
 40
0.0
176
     1
 40
1.0
176
     1
 90
        0
176
     1
 62
    18
420
        0
176
     1
 90
       50
176
     1
 90
        3
176
     1
 62
     5
420
      255
176
     1
290
     0
176
     1
 90
       50
176
     1
 90
       50
176
     1
 90
       50
176
     1
290
     0
176
     1
 90
       50
176
     1
 62
   256
176
     0
 40
1.0
176
     0
 90
        2
176
     1
  1
strokes_ogs.tif
176
     1
290
     0
176
     1
 40
1.0
176
     1
 40
1.0
176
     1
  0
VISUALSTYLE
  5
3D
102
{ACAD_REACTORS
330
29
102
}
330
29
100
AcDbVisualStyle
  2
Shaded with edges
 70
    26
177
     3
291
     0
 70
    58
 90
        2
176
     1
 90
        2
176
     1
 90
        1
176
     1
 90
        2
176
     1
 40
0.6
176
     1
 40
30.0
176
     1
 62
     7
420
 16777215
176
     1
 90
        1
176
     1
 90
       10
176
     1
 62
     7
176
     1
 62
   257
176
     1
 90
        2
176
     1
 90
        1
176
     1
 40
1.0
176
     1
 90
        8
176
     1
 62
   257
176
     1
 40
1.0
176
     1
 90
        1
176
     1
 90
        6
176
     1
 90
        2
176
     1
 62
     7
176
     1
 90
        3
176
     1
 90
        0
176
     1
 90
        0
176
     1
290
     0
176
     1
 90
        5
176
     1
 40
0.0
176
     1
 90
        0
176
     1
290
     0
176
     1
290
     1
176
     1
290
     1
176
     1
290
     0
176
     1
290
     0
176
     1
290
     0
176
     1
290
     0
176
     1
290
     0
176
     1
290
     0
176
     1
 90
       50
176
     1
 40
0.0
176
     1
 40
1.0
176
     1
 90
        0
176
     1
 62
    18
420
        0
176
     1
 90
       50
176
     1
 90
        3
176
     1
 62
     5
420
      255
176
     1
290
     0
176
     1
 90
       50
176
     1
 90
       50
176
     1
 90
       50
176
     1
290
     0
176
     1
 90
       50
176
     1
 62
   256
176
     0
 40
1.0
176
     0
 90
        2
176
     1
  1
strokes_ogs.tif
176
     1
290
     0
176
     1
 40
1.0
176
     1
 40
1.0
176
     1
  0
VISUALSTYLE
  5
3A
102
{ACAD_REACTORS
330
29
102
}
330
29
100
AcDbVisualStyle
  2
Shades of Gray
 70
    23
177
     3
291
     0
 70
    58
 90
        2
176
     1
 90
        2
176
     1
 90
        3
176
     1
 90
        0
176
     1
 40
0.6
176
     1
 40
30.0
176
     1
 62
     7
420
 16777215
176
     1
 90
        2
176
     1
 90
        2
176
     1
 62
     7
176
     1
 62
     7
176
     1
 90
        1
176
     1
 90
        1
176
     1
 40
40.0
176
     1
 90
        8
176
     1
 62
     7
176
     1
 40
1.0
176
     1
 90
        1
176
     1
 90
        6
176
     1
 90
        2
176
     1
 62
     7
176
     1
 90
        3
176
     1
 90
        0
176
     1
 90
        0
176
     1
290
     0
176
     1
 90
        1
176
     1
 40
0.0
176
     1
 90
        0
176
     1
290
     0
176
     1
290
     1
176
     1
290
     1
176
     1
290
     0
176
     1
290
     0
176
     1
290
     0
176
     1
290
     0
176
     1
290
     0
176
     1
290
     0
176
     1
 90
       50
176
     1
 40
0.0
176
     1
 40
1.0
176
     1
 90
        0
176
     1
 62
    18
420
        0
176
     1
 90
       50
176
     1
 90
        3
176
     1
 62
     5
420
      255
176
     1
290
     0
176
     1
 90
       50
176
     1
 90
       50
176
     1
 90
       50
176
     1
290
     0
176
     1
 90
       50
176
     1
 62
   256
176
     0
 40
1.0
176
     0
 90
        2
176
     1
  1
strokes_ogs.tif
176
     1
290
     0
176
     1
 40
1.0
176
     1
 40
1.0
176
     1
  0
VISUALSTYLE
  5
3B
102
{ACAD_REACTORS
330
29
102
}
330
29
100
AcDbVisualStyle
  2
Sketchy
 70
    24
177
     3
291
     0
 70
    58
 90
        1
176
     1
 90
        2
176
     1
 90
        2
176
     1
 90
        0
176
     1
 40
0.6
176
     1
 40
30.0
176
     1
 62
     7
420
 16777215
176
     1
 90
        2
176
     1
 90
        2
176
     1
 62
     7
176
     1
 62
     7
176
     1
 90
        1
176
     1
 90
        1
176
     1
 40
40.0
176
     1
 90
       11
176
     1
 62
     7
176
     1
 40
1.0
176
     1
 90
        1
176
     1
 90
        6
176
     1
 90
        2
176
     1
 62
     7
176
     1
 90
        6
176
     1
 90
        0
176
     1
 90
        0
176
     1
290
     0
176
     1
 90
        1
176
     1
 40
0.0
176
     1
 90
        0
176
     1
290
     0
176
     1
290
     1
176
     1
290
     1
176
     1
290
     0
176
     1
290
     0
176
     1
290
     0
176
     1
290
     0
176
     1
290
     0
176
     1
290
     0
176
     1
 90
       50
176
     1
 40
0.0
176
     1
 40
1.0
176
     1
 90
        0
176
     1
 62
    18
420
        0
176
     1
 90
       50
176
     1
 90
        3
176
     1
 62
     5
420
      255
176
     1
290
     0
176
     1
 90
       50
176
     1
 90
       50
176
     1
 90
       50
176
     1
290
     0
176
     1
 90
       50
176
     1
 62
   256
176
     0
 40
1.0
176
     0
 90
        2
176
     1
  1
strokes_ogs.tif
176
     1
290
     0
176
     1
 40
1.0
176
     1
 40
1.0
176
     1
  0
VISUALSTYLE
  5
36
102
{ACAD_REACTORS
330
29
102
}
330
29
100
AcDbVisualStyle
  2
Thicken
 70
    13
177
     3
291
     1
 70
    58
 90
        2
176
     1
 90
        2
176
     1
 90
        0
176
     1
 90
        0
176
     1
 40
0.6
176
     1
 40
30.0
176
     1
 62
     7
420
 16777215
176
     1
 90
        1
176
     1
 90
        4
176
     1
 62
     7
176
     1
 62
   257
176
     1
 90
        1
176
     1
 90
        1
176
     1
 40
1.0
176
     1
 90
       12
176
     1
 62
     7
176
     1
 40
1.0
176
     1
 90
        1
176
     1
 90
        6
176
     1
 90
        2
176
     1
 62
     7
176
     1
 90
        5
176
     1
 90
        0
176
     1
 90
        0
176
     1
290
     0
176
     1
 90
        1
176
     1
 40
0.0
176
     1
 90
        0
176
     1
290
     0
176
     1
290
     1
176
     1
290
     1
176
     1
290
     0
176
     1
290
     0
176
     1
290
     0
176
     1
290
     0
176
     1
290
     0
176
     1
290
     0
176
     1
 90
       50
176
     1
 40
0.0
176
     1
 40
1.0
176
     1
 90
        0
176
     1
 62
    18
420
        0
176
     1
 90
       50
176
     1
 90
        3
176
     1
 62
     5
420
      255
176
     1
290
     0
176
     1
 90
       50
176
     1
 90
       50
176
     1
 90
       50
176
     1
290
     0
176
     1
 90
       50
176
     1
 62
   256
176
     0
 40
1.0
176
     0
 90
        2
176
     1
  1
strokes_ogs.tif
176
     1
290
     0
176
     1
 40
1.0
176
     1
 40
1.0
176
     1
  0
VISUALSTYLE
  5
30
102
{ACAD_REACTORS
330
29
102
}
330
29
100
AcDbVisualStyle
  2
Wireframe
 70
     5
177
     3
291
     0
 70
    58
 90
        0
176
     1
 90
        2
176
     1
 90
        0
176
     1
 90
        0
176
     1
 40
0.6
176
     1
 40
30.0
176
     1
 62
     7
420
 16777215
176
     1
 90
        1
176
     1
 90
        4
176
     1
 62
     7
176
     1
 62
   257
176
     1
 90
        1
176
     1
 90
        1
176
     1
 40
1.0
176
     1
 90
        0
176
     1
 62
   257
176
     1
 40
1.0
176
     1
 90
        1
176
     1
 90
        6
176
     1
 90
        2
176
     1
 62
     7
176
     1
 90
        3
176
     1
 90
        0
176
     1
 90
        0
176
     1
290
     0
176
     1
 90
        1
176
     1
 40
0.0
176
     1
 90
        0
176
     1
290
     0
176
     1
290
     1
176
     1
290
     1
176
     1
290
     0
176
     1
290
     0
176
     1
290
     0
176
     1
290
     0
176
     1
290
     0
176
     1
290
     0
176
     1
 90
       50
176
     1
 40
0.0
176
     1
 40
1.0
176
     1
 90
        0
176
     1
 62
    18
420
        0
176
     1
 90
       50
176
     1
 90
        3
176
     1
 62
     5
420
      255
176
     1
290
     0
176
     1
 90
       50
176
     1
 90
       50
176
     1
 90
       50
176
     1
290
     0
176
     1
 90
       50
176
     1
 62
   256
176
     0
 40
1.0
176
     0
 90
        2
176
     1
  1
strokes_ogs.tif
176
     1
290
     0
176
     1
 40
1.0
176
     1
 40
1.0
176
     1
  0
VISUALSTYLE
  5
3C
102
{ACAD_REACTORS
330
29
102
}
330
29
100
AcDbVisualStyle
  2
X-Ray
 70
    25
177
     3
291
     0
 70
    58
 90
        2
176
     1
 90
        2
176
     1
 90
        1
176
     1
 90
        1
176
     1
 40
0.5
176
     1
 40
30.0
176
     1
 62
     7
420
 16777215
176
     1
 90
        1
176
     1
 90
        0
176
     1
 62
     7
176
     1
 62
   257
176
     1
 90
        1
176
     1
 90
        1
176
     1
 40
1.0
176
     1
 90
        8
176
     1
 62
     7
176
     1
 40
1.0
176
     1
 90
        1
176
     1
 90
        6
176
     1
 90
        2
176
     1
 62
     7
176
     1
 90
        3
176
     1
 90
        0
176
     1
 90
        0
176
     1
290
     0
176
     1
 90
       13
176
     1
 40
0.0
176
     1
 90
        0
176
     1
290
     0
176
     1
290
     1
176
     1
290
     1
176
     1
290
     0
176
     1
290
     0
176
     1
290
     0
176
     1
290
     0
176
     1
290
     0
176
     1
290
     0
176
     1
 90
       50
176
     1
 40
0.0
176
     1
 40
1.0
176
     1
 90
        0
176
     1
 62
    18
420
        0
176
     1
 90
       50
176
     1
 90
        3
176
     1
 62
     5
420
      255
176
     1
290
     0
176
     1
 90
       50
176
     1
 90
       50
176
     1
 90
       50
176
     1
290
     0
176
     1
 90
       50
176
     1
 62
   256
176
     0
 40
1.0
176
     0
 90
        2
176
     1
  1
strokes_ogs.tif
176
     1
290
     0
176
     1
 40
1.0
176
     1
 40
1.0
176
     1
  0
DICTIONARYVAR
  5
81
102
{ACAD_REACTORS
330
7C
102
}
330
7C
100
DictionaryVariables
280
     0
  1
1:1
  0
DICTIONARYVAR
  5
7E
102
{ACAD_REACTORS
330
7C
102
}
330
7C
100
DictionaryVariables
280
     0
  1
STANDARD
  0
DICTIONARYVAR
  5
7D
102
{ACAD_REACTORS
330
7C
102
}
330
7C
100
DictionaryVariables
280
     0
  1
STANDARD
  0
DICTIONARYVAR
  5
7F
102
{ACAD_REACTORS
330
7C
102
}
330
7C
100
DictionaryVariables
280
     0
  1
Imperial24
  0
DICTIONARYVAR
  5
80
102
{ACAD_REACTORS
330
7C
102
}
330
7C
100
DictionaryVariables
280
     0
  1
Imperial24
  0
XRECORD
  5
2AB
102
{ACAD_REACTORS
330
2A7
102
}
330
2A7
100
AcDbXrecord
280
     1
  1
BUILDING_ID
  1
Progetto per test valvole
  1
FLOOR_ID
  1
694395
  0
XRECORD
  5
2A9
102
{ACAD_REACTORS
330
2A7
102
}
330
2A7
100
AcDbXrecord
280
     1
  1
-2001160
  1
Apparecchi idraulici
  0
XRECORD
  5
2AA
102
{ACAD_REACTORS
330
2A7
102
}
330
2A7
100
AcDbXrecord
280
     1
  1
790271
  1
Body
  1
856288
  1
Lever
  0
XRECORD
  5
2A8
102
{ACAD_REACTORS
330
2A7
102
}
330
2A7
100
AcDbXrecord
280
     1
  1
859151
  1
Automatic flow rate regulator valve_Caleffi_121 DN15 : 1/2''
  0
DICTIONARY
  5
1A
330
19
100
AcDbDictionary
280
     1
281
     1
  3
BUMPTILE
360
1C
  3
DIFFUSETILE
360
1B
  3
OPACITYTILE
360
1F
  3
REFLECTIONTILE
360
1E
  3
REFRACTIONTILE
360
20
  3
SPECULARTILE
360
1D
  0
DICTIONARY
  5
12
330
11
100
AcDbDictionary
280
     1
281
     1
  3
BUMPTILE
360
14
  3
DIFFUSETILE
360
13
  3
OPACITYTILE
360
17
  3
REFLECTIONTILE
360
16
  3
REFRACTIONTILE
360
18
  3
SPECULARTILE
360
15
  0
DICTIONARY
  5
22
330
21
100
AcDbDictionary
280
     1
281
     1
  3
BUMPTILE
360
24
  3
DIFFUSETILE
360
23
  3
OPACITYTILE
360
27
  3
REFLECTIONTILE
360
26
  3
REFRACTIONTILE
360
28
  3
SPECULARTILE
360
25
  0
DICTIONARY
  5
2AE
330
65
100
AcDbDictionary
280
     1
281
     1
  3
ACAD_ROUNDTRIP_2008_TABLESTYLE_CELLSTYLEMAP
360
2AF
  0
XRECORD
  5
1C
102
{ACAD_REACTORS
330
1A
102
}
330
1A
100
AcDbXrecord
280
     1
270
     1
271
     1
  0
XRECORD
  5
1B
102
{ACAD_REACTORS
330
1A
102
}
330
1A
100
AcDbXrecord
280
     1
270
     1
271
     1
  0
XRECORD
  5
1F
102
{ACAD_REACTORS
330
1A
102
}
330
1A
100
AcDbXrecord
280
     1
270
     1
271
     1
  0
XRECORD
  5
1E
102
{ACAD_REACTORS
330
1A
102
}
330
1A
100
AcDbXrecord
280
     1
270
     1
271
     1
  0
XRECORD
  5
20
102
{ACAD_REACTORS
330
1A
102
}
330
1A
100
AcDbXrecord
280
     1
270
     1
271
     1
  0
XRECORD
  5
1D
102
{ACAD_REACTORS
330
1A
102
}
330
1A
100
AcDbXrecord
280
     1
270
     1
271
     1
  0
XRECORD
  5
14
102
{ACAD_REACTORS
330
12
102
}
330
12
100
AcDbXrecord
280
     1
270
     1
271
     1
  0
XRECORD
  5
13
102
{ACAD_REACTORS
330
12
102
}
330
12
100
AcDbXrecord
280
     1
270
     1
271
     1
  0
XRECORD
  5
17
102
{ACAD_REACTORS
330
12
102
}
330
12
100
AcDbXrecord
280
     1
270
     1
271
     1
  0
XRECORD
  5
16
102
{ACAD_REACTORS
330
12
102
}
330
12
100
AcDbXrecord
280
     1
270
     1
271
     1
  0
XRECORD
  5
18
102
{ACAD_REACTORS
330
12
102
}
330
12
100
AcDbXrecord
280
     1
270
     1
271
     1
  0
XRECORD
  5
15
102
{ACAD_REACTORS
330
12
102
}
330
12
100
AcDbXrecord
280
     1
270
     1
271
     1
  0
XRECORD
  5
24
102
{ACAD_REACTORS
330
22
102
}
330
22
100
AcDbXrecord
280
     1
270
     1
271
     1
  0
XRECORD
  5
23
102
{ACAD_REACTORS
330
22
102
}
330
22
100
AcDbXrecord
280
     1
270
     1
271
     1
  0
XRECORD
  5
27
102
{ACAD_REACTORS
330
22
102
}
330
22
100
AcDbXrecord
280
     1
270
     1
271
     1
  0
XRECORD
  5
26
102
{ACAD_REACTORS
330
22
102
}
330
22
100
AcDbXrecord
280
     1
270
     1
271
     1
  0
XRECORD
  5
28
102
{ACAD_REACTORS
330
22
102
}
330
22
100
AcDbXrecord
280
     1
270
     1
271
     1
  0
XRECORD
  5
25
102
{ACAD_REACTORS
330
22
102
}
330
22
100
AcDbXrecord
280
     1
270
     1
271
     1
  0
CELLSTYLEMAP
  5
2AF
102
{ACAD_REACTORS
330
2AE
102
}
330
2AE
100
AcDbCellStyleMap
 90
        3
300
CELLSTYLE
  1
TABLEFORMAT_BEGIN
 90
        5
170
     1
 91
        0
 92
    32768
 62
   257
 93
        1
300
CONTENTFORMAT
  1
CONTENTFORMAT_BEGIN
 90
        0
 91
        0
 92
      512
 93
        0
300

 40
0.0
140
1.0
 94
        5
 62
     0
340
55
144
0.25
309
CONTENTFORMAT_END
171
     0
 94
        0
309
TABLEFORMAT_END
  1
CELLSTYLE_BEGIN
 90
        1
 91
        1
300
_TITLE
309
CELLSTYLE_END
300
CELLSTYLE
  1
TABLEFORMAT_BEGIN
 90
        5
170
     1
 91
        0
 92
        0
 62
   257
 93
        1
300
CONTENTFORMAT
  1
CONTENTFORMAT_BEGIN
 90
        0
 91
        0
 92
      512
 93
        0
300

 40
0.0
140
1.0
 94
        5
 62
     0
340
55
144
0.18
309
CONTENTFORMAT_END
171
     0
 94
        0
309
TABLEFORMAT_END
  1
CELLSTYLE_BEGIN
 90
        2
 91
        1
300
_HEADER
309
CELLSTYLE_END
300
CELLSTYLE
  1
TABLEFORMAT_BEGIN
 90
        5
170
     1
 91
        0
 92
        0
 62
   257
 93
        1
300
CONTENTFORMAT
  1
CONTENTFORMAT_BEGIN
 90
        0
 91
        0
 92
      512
 93
        0
300

 40
0.0
140
1.0
 94
        2
 62
     0
340
55
144
0.18
309
CONTENTFORMAT_END
171
     0
 94
        0
309
TABLEFORMAT_END
  1
CELLSTYLE_BEGIN
 90
        3
 91
        2
300
_DATA
309
CELLSTYLE_END
  0
ENDSEC
  0
EOF
