  0
SECTION
  2
HEADER
  9
$ACADVER
  1
AC1027
  9
$ACADMAINTVER
 70
    20
  9
$DWGCODEPAGE
  3
ANSI_1252
  9
$REQUIREDVERSIONS
160
                 0
  9
$INSBASE
 10
0.0
 20
0.0
 30
0.0
  9
$EXTMIN
 10
576.020363149137
 20
1761.245878730036
 30
-0.00000001
  9
$EXTMAX
 10
1112.114353953113
 20
2086.999999999993
 30
0.00000001
  9
$LIMMIN
 10
0.0
 20
0.0
  9
$LIMMAX
 10
12.0
 20
9.0
  9
$ORTHOMODE
 70
     0
  9
$REGENMODE
 70
     1
  9
$FILLMODE
 70
     1
  9
$QTEXTMODE
 70
     0
  9
$MIRRTEXT
 70
     0
  9
$LTSCALE
 40
1.0
  9
$ATTMODE
 70
     1
  9
$TEXTSIZE
 40
0.2
  9
$TRACEWID
 40
0.05
  9
$TEXTSTYLE
  7
Standard
  9
$CLAYER
  8
0
  9
$CELTYPE
  6
ByLayer
  9
$CECOLOR
 62
   256
  9
$CELTSCALE
 40
1.0
  9
$DISPSILH
 70
     0
  9
$DIMSCALE
 40
1.0
  9
$DIMASZ
 40
0.18
  9
$DIMEXO
 40
0.0625
  9
$DIMDLI
 40
0.38
  9
$DIMRND
 40
0.0
  9
$DIMDLE
 40
0.0
  9
$DIMEXE
 40
0.18
  9
$DIMTP
 40
0.0
  9
$DIMTM
 40
0.0
  9
$DIMTXT
 40
0.18
  9
$DIMCEN
 40
0.09
  9
$DIMTSZ
 40
0.0
  9
$DIMTOL
 70
     0
  9
$DIMLIM
 70
     0
  9
$DIMTIH
 70
     1
  9
$DIMTOH
 70
     1
  9
$DIMSE1
 70
     0
  9
$DIMSE2
 70
     0
  9
$DIMTAD
 70
     0
  9
$DIMZIN
 70
     0
  9
$DIMBLK
  1

  9
$DIMASO
 70
     1
  9
$DIMSHO
 70
     1
  9
$DIMPOST
  1

  9
$DIMAPOST
  1

  9
$DIMALT
 70
     0
  9
$DIMALTD
 70
     2
  9
$DIMALTF
 40
25.4
  9
$DIMLFAC
 40
1.0
  9
$DIMTOFL
 70
     0
  9
$DIMTVP
 40
0.0
  9
$DIMTIX
 70
     0
  9
$DIMSOXD
 70
     0
  9
$DIMSAH
 70
     0
  9
$DIMBLK1
  1

  9
$DIMBLK2
  1

  9
$DIMSTYLE
  2
Standard
  9
$DIMCLRD
 70
     0
  9
$DIMCLRE
 70
     0
  9
$DIMCLRT
 70
     0
  9
$DIMTFAC
 40
1.0
  9
$DIMGAP
 40
0.09
  9
$DIMJUST
 70
     0
  9
$DIMSD1
 70
     0
  9
$DIMSD2
 70
     0
  9
$DIMTOLJ
 70
     1
  9
$DIMTZIN
 70
     0
  9
$DIMALTZ
 70
     0
  9
$DIMALTTZ
 70
     0
  9
$DIMUPT
 70
     0
  9
$DIMDEC
 70
     4
  9
$DIMTDEC
 70
     4
  9
$DIMALTU
 70
     2
  9
$DIMALTTD
 70
     2
  9
$DIMTXSTY
  7
Standard
  9
$DIMAUNIT
 70
     0
  9
$DIMADEC
 70
     0
  9
$DIMALTRND
 40
0.0
  9
$DIMAZIN
 70
     0
  9
$DIMDSEP
 70
    46
  9
$DIMATFIT
 70
     3
  9
$DIMFRAC
 70
     0
  9
$DIMLDRBLK
  1

  9
$DIMLUNIT
 70
     2
  9
$DIMLWD
 70
    -2
  9
$DIMLWE
 70
    -2
  9
$DIMTMOVE
 70
     0
  9
$DIMFXL
 40
1.0
  9
$DIMFXLON
 70
     0
  9
$DIMJOGANG
 40
0.7853981633974483
  9
$DIMTFILL
 70
     0
  9
$DIMTFILLCLR
 70
     0
  9
$DIMARCSYM
 70
     0
  9
$DIMLTYPE
  6

  9
$DIMLTEX1
  6

  9
$DIMLTEX2
  6

  9
$DIMTXTDIRECTION
 70
     0
  9
$LUNITS
 70
     2
  9
$LUPREC
 70
     4
  9
$SKETCHINC
 40
0.1
  9
$FILLETRAD
 40
0.0
  9
$AUNITS
 70
     0
  9
$AUPREC
 70
     0
  9
$MENU
  1
.
  9
$ELEVATION
 40
0.0
  9
$PELEVATION
 40
0.0
  9
$THICKNESS
 40
0.0
  9
$LIMCHECK
 70
     0
  9
$CHAMFERA
 40
0.0
  9
$CHAMFERB
 40
0.0
  9
$CHAMFERC
 40
0.0
  9
$CHAMFERD
 40
0.0
  9
$SKPOLY
 70
     0
  9
$TDCREATE
 40
2457540.341084619
  9
$TDUCREATE
 40
2457540.257751285
  9
$TDUPDATE
 40
2457540.341084619
  9
$TDUUPDATE
 40
2457540.257751285
  9
$TDINDWG
 40
0.0000114468
  9
$TDUSRTIMER
 40
0.0000114468
  9
$USRTIMER
 70
     1
  9
$ANGBASE
 50
0.0
  9
$ANGDIR
 70
     0
  9
$PDMODE
 70
     0
  9
$PDSIZE
 40
0.0
  9
$PLINEWID
 40
0.0
  9
$SPLFRAME
 70
     0
  9
$SPLINETYPE
 70
     6
  9
$SPLINESEGS
 70
     8
  9
$HANDSEED
  5
2F3
  9
$SURFTAB1
 70
     6
  9
$SURFTAB2
 70
     6
  9
$SURFTYPE
 70
     6
  9
$SURFU
 70
     6
  9
$SURFV
 70
     6
  9
$UCSBASE
  2

  9
$UCSNAME
  2

  9
$UCSORG
 10
0.0
 20
0.0
 30
0.0
  9
$UCSXDIR
 10
1.0
 20
0.0
 30
0.0
  9
$UCSYDIR
 10
0.0
 20
1.0
 30
0.0
  9
$UCSORTHOREF
  2

  9
$UCSORTHOVIEW
 70
     0
  9
$UCSORGTOP
 10
0.0
 20
0.0
 30
0.0
  9
$UCSORGBOTTOM
 10
0.0
 20
0.0
 30
0.0
  9
$UCSORGLEFT
 10
0.0
 20
0.0
 30
0.0
  9
$UCSORGRIGHT
 10
0.0
 20
0.0
 30
0.0
  9
$UCSORGFRONT
 10
0.0
 20
0.0
 30
0.0
  9
$UCSORGBACK
 10
0.0
 20
0.0
 30
0.0
  9
$PUCSBASE
  2

  9
$PUCSNAME
  2

  9
$PUCSORG
 10
0.0
 20
0.0
 30
0.0
  9
$PUCSXDIR
 10
1.0
 20
0.0
 30
0.0
  9
$PUCSYDIR
 10
0.0
 20
1.0
 30
0.0
  9
$PUCSORTHOREF
  2

  9
$PUCSORTHOVIEW
 70
     0
  9
$PUCSORGTOP
 10
0.0
 20
0.0
 30
0.0
  9
$PUCSORGBOTTOM
 10
0.0
 20
0.0
 30
0.0
  9
$PUCSORGLEFT
 10
0.0
 20
0.0
 30
0.0
  9
$PUCSORGRIGHT
 10
0.0
 20
0.0
 30
0.0
  9
$PUCSORGFRONT
 10
0.0
 20
0.0
 30
0.0
  9
$PUCSORGBACK
 10
0.0
 20
0.0
 30
0.0
  9
$USERI1
 70
     0
  9
$USERI2
 70
     0
  9
$USERI3
 70
     0
  9
$USERI4
 70
     0
  9
$USERI5
 70
     0
  9
$USERR1
 40
0.0
  9
$USERR2
 40
0.0
  9
$USERR3
 40
0.0
  9
$USERR4
 40
0.0
  9
$USERR5
 40
0.0
  9
$WORLDVIEW
 70
     1
  9
$SHADEDGE
 70
     3
  9
$SHADEDIF
 70
    70
  9
$TILEMODE
 70
     1
  9
$MAXACTVP
 70
    64
  9
$PINSBASE
 10
0.0
 20
0.0
 30
0.0
  9
$PLIMCHECK
 70
     0
  9
$PEXTMIN
 10
1.000000000000000E+20
 20
1.000000000000000E+20
 30
1.000000000000000E+20
  9
$PEXTMAX
 10
-1.000000000000000E+20
 20
-1.000000000000000E+20
 30
-1.000000000000000E+20
  9
$PLIMMIN
 10
0.0
 20
0.0
  9
$PLIMMAX
 10
12.0
 20
9.0
  9
$UNITMODE
 70
     0
  9
$VISRETAIN
 70
     1
  9
$PLINEGEN
 70
     0
  9
$PSLTSCALE
 70
     1
  9
$TREEDEPTH
 70
  3020
  9
$CMLSTYLE
  2
Standard
  9
$CMLJUST
 70
     0
  9
$CMLSCALE
 40
1.0
  9
$PROXYGRAPHICS
 70
     1
  9
$MEASUREMENT
 70
     1
  9
$CELWEIGHT
370
    -1
  9
$ENDCAPS
280
     0
  9
$JOINSTYLE
280
     0
  9
$LWDISPLAY
290
     0
  9
$INSUNITS
 70
     4
  9
$HYPERLINKBASE
  1

  9
$STYLESHEET
  1

  9
$XEDIT
290
     1
  9
$CEPSNTYPE
380
     0
  9
$PSTYLEMODE
290
     1
  9
$FINGERPRINTGUID
  2
{084DE478-D861-4F97-921D-0A74C185295F}
  9
$VERSIONGUID
  2
{C38BB5E9-927C-4735-B41B-767D1AA07AE2}
  9
$EXTNAMES
290
     1
  9
$PSVPSCALE
 40
0.0
  9
$OLESTARTUP
290
     0
  9
$SORTENTS
280
   127
  9
$INDEXCTL
280
     0
  9
$HIDETEXT
280
     1
  9
$XCLIPFRAME
280
     2
  9
$HALOGAP
280
     0
  9
$OBSCOLOR
 70
   257
  9
$OBSLTYPE
280
     0
  9
$INTERSECTIONDISPLAY
280
     0
  9
$INTERSECTIONCOLOR
 70
   257
  9
$DIMASSOC
280
     2
  9
$PROJECTNAME
  1

  9
$CAMERADISPLAY
290
     0
  9
$LENSLENGTH
 40
50.0
  9
$CAMERAHEIGHT
 40
0.0
  9
$STEPSPERSEC
 40
2.0
  9
$STEPSIZE
 40
6.0
  9
$3DDWFPREC
 40
2.0
  9
$PSOLWIDTH
 40
0.25
  9
$PSOLHEIGHT
 40
4.0
  9
$LOFTANG1
 40
1.570796326794896
  9
$LOFTANG2
 40
1.570796326794896
  9
$LOFTMAG1
 40
0.0
  9
$LOFTMAG2
 40
0.0
  9
$LOFTPARAM
 70
     7
  9
$LOFTNORMALS
280
     1
  9
$LATITUDE
 40
37.795
  9
$LONGITUDE
 40
-122.394
  9
$NORTHDIRECTION
 40
0.0
  9
$TIMEZONE
 70
 -8000
  9
$LIGHTGLYPHDISPLAY
280
     1
  9
$TILEMODELIGHTSYNCH
280
     1
  9
$CMATERIAL
347
11
  9
$SOLIDHIST
280
     0
  9
$SHOWHIST
280
     1
  9
$DWFFRAME
280
     2
  9
$DGNFRAME
280
     0
  9
$REALWORLDSCALE
290
     1
  9
$INTERFERECOLOR
 62
     1
  9
$INTERFEREOBJVS
345
33
  9
$INTERFEREVPVS
346
30
  9
$CSHADOW
280
     0
  9
$SHADOWPLANELOCATION
 40
0.0
  0
ENDSEC
  0
SECTION
  2
CLASSES
  0
CLASS
  1
ACDBDICTIONARYWDFLT
  2
AcDbDictionaryWithDefault
  3
ObjectDBX Classes
 90
        0
 91
        1
280
     0
281
     0
  0
CLASS
  1
MATERIAL
  2
AcDbMaterial
  3
ObjectDBX Classes
 90
     1153
 91
        3
280
     0
281
     0
  0
CLASS
  1
VISUALSTYLE
  2
AcDbVisualStyle
  3
ObjectDBX Classes
 90
     4095
 91
       24
280
     0
281
     0
  0
CLASS
  1
SCALE
  2
AcDbScale
  3
ObjectDBX Classes
 90
     1153
 91
       17
280
     0
281
     0
  0
CLASS
  1
TABLESTYLE
  2
AcDbTableStyle
  3
ObjectDBX Classes
 90
     4095
 91
        1
280
     0
281
     0
  0
CLASS
  1
MLEADERSTYLE
  2
AcDbMLeaderStyle
  3
ACDB_MLEADERSTYLE_CLASS
 90
     4095
 91
        1
280
     0
281
     0
  0
CLASS
  1
ACDBSECTIONVIEWSTYLE
  2
AcDbSectionViewStyle
  3
ObjectDBX Classes
 90
     1025
 91
        1
280
     0
281
     0
  0
CLASS
  1
ACDBDETAILVIEWSTYLE
  2
AcDbDetailViewStyle
  3
ObjectDBX Classes
 90
     1025
 91
        1
280
     0
281
     0
  0
CLASS
  1
RASTERVARIABLES
  2
AcDbRasterVariables
  3
ISM
 90
        0
 91
        1
280
     0
281
     0
  0
CLASS
  1
DICTIONARYVAR
  2
AcDbDictionaryVar
  3
ObjectDBX Classes
 90
        0
 91
        5
280
     0
281
     0
  0
CLASS
  1
CELLSTYLEMAP
  2
AcDbCellStyleMap
  3
ObjectDBX Classes
 90
     1152
 91
        2
280
     0
281
     0
  0
CLASS
  1
SORTENTSTABLE
  2
AcDbSortentsTable
  3
ObjectDBX Classes
 90
        0
 91
        1
280
     0
281
     0
  0
ENDSEC
  0
SECTION
  2
TABLES
  0
TABLE
  2
VPORT
  5
8
330
0
100
AcDbSymbolTable
 70
     1
  0
VPORT
  5
57
330
8
100
AcDbSymbolTableRecord
100
AcDbViewportTableRecord
  2
*Active
 70
     0
 10
0.0
 20
0.0
 11
1.0
 21
1.0
 12
844.067358551125
 22
1924.122939365014
 13
0.0
 23
0.0
 14
1.0
 24
1.0
 15
0.0
 25
0.0
 16
0.0
 26
0.0
 36
1.0
 17
0.0
 27
0.0
 37
0.0
 40
325.7541212699575
 41
1.645701330543433
 42
50.0
 43
0.0
 44
0.0
 50
0.0
 51
0.0
 71
     0
 72
  1000
 73
     1
 74
     1
 75
     0
 76
     0
 77
     0
 78
     0
281
     0
 65
     1
110
0.0
120
0.0
130
0.0
111
1.0
121
0.0
131
0.0
112
0.0
122
1.0
132
0.0
 79
     0
146
0.0
 60
     3
 61
     5
292
     1
282
     1
141
0.0
142
0.0
 63
   250
421
  3355443
  0
ENDTAB
  0
TABLE
  2
LTYPE
  5
5
330
0
100
AcDbSymbolTable
 70
     3
  0
LTYPE
  5
5B
330
5
100
AcDbSymbolTableRecord
100
AcDbLinetypeTableRecord
  2
ByBlock
 70
     0
  3

 72
    65
 73
     0
 40
0.0
  0
LTYPE
  5
5C
330
5
100
AcDbSymbolTableRecord
100
AcDbLinetypeTableRecord
  2
ByLayer
 70
     0
  3

 72
    65
 73
     0
 40
0.0
  0
LTYPE
  5
5D
330
5
100
AcDbSymbolTableRecord
100
AcDbLinetypeTableRecord
  2
Continuous
 70
     0
  3
Solid line
 72
    65
 73
     0
 40
0.0
  0
LTYPE
  5
69
330
5
100
AcDbSymbolTableRecord
100
AcDbLinetypeTableRecord
  2
PHANTOM2
 70
     0
  3
___ _ _ ___ _ _ ___ _ _ ___ _ _
 72
    65
 73
     6
 40
1.25
 49
0.625
 74
     0
 49
-0.125
 74
     0
 49
0.125
 74
     0
 49
-0.125
 74
     0
 49
0.125
 74
     0
 49
-0.125
 74
     0
  0
LTYPE
  5
86
330
5
100
AcDbSymbolTableRecord
100
AcDbLinetypeTableRecord
  2
Nascosto 1_5 mm
 70
     0
  3

 72
    65
 73
     2
 40
2.2
 49
1.5
 74
     0
 49
-0.7000000000000001
 74
     0
  0
ENDTAB
  0
TABLE
  2
LAYER
  5
2
330
0
100
AcDbSymbolTable
 70
     4
  0
LAYER
  5
54
330
2
100
AcDbSymbolTableRecord
100
AcDbLayerTableRecord
  2
0
 70
     0
 62
     7
  6
Continuous
370
    -3
390
F
347
21
348
0
  0
LAYER
  5
85
330
2
100
AcDbSymbolTableRecord
100
AcDbLayerTableRecord
  2
P-SANR-FIXT
 70
     0
 62
     6
  6
Continuous
370
    18
390
F
347
21
348
0
  0
LAYER
  5
88
330
2
100
AcDbSymbolTableRecord
100
AcDbLayerTableRecord
  2
M-PIPE
 70
     0
 62
     3
  6
Continuous
370
    18
390
F
347
21
348
0
  0
ENDTAB
  0
TABLE
  2
STYLE
  5
3
330
0
100
AcDbSymbolTable
 70
     2
  0
STYLE
  5
55
330
3
100
AcDbSymbolTableRecord
100
AcDbTextStyleTableRecord
  2
Standard
 70
     0
 40
0.0
 41
1.0
 50
0.0
 71
     0
 42
0.2
  3
txt
  4

  0
STYLE
  5
5A
330
3
100
AcDbSymbolTableRecord
100
AcDbTextStyleTableRecord
  2
Annotative
 70
     0
 40
0.0
 41
1.0
 50
0.0
 71
     0
 42
0.2
  3
txt
  4

1001
AcadAnnotative
1000
AnnotativeData
1002
{
1070
     1
1070
     1
1002
}
  0
ENDTAB
  0
TABLE
  2
VIEW
  5
6
330
0
100
AcDbSymbolTable
 70
     0
  0
ENDTAB
  0
TABLE
  2
UCS
  5
7
330
0
100
AcDbSymbolTable
 70
     0
  0
ENDTAB
  0
TABLE
  2
APPID
  5
9
330
0
100
AcDbSymbolTable
 70
     3
  0
APPID
  5
56
330
9
100
AcDbSymbolTableRecord
100
AcDbRegAppTableRecord
  2
ACAD
 70
     0
  0
APPID
  5
5E
330
9
100
AcDbSymbolTableRecord
100
AcDbRegAppTableRecord
  2
AcadAnnotative
 70
     0
  0
APPID
  5
79
330
9
100
AcDbSymbolTableRecord
100
AcDbRegAppTableRecord
  2
REVIT
 70
     0
  0
ENDTAB
  0
TABLE
  2
DIMSTYLE
  5
A
330
0
100
AcDbSymbolTable
 70
     2
100
AcDbDimStyleTable
 71
     0
  0
DIMSTYLE
105
58
330
A
100
AcDbSymbolTableRecord
100
AcDbDimStyleTableRecord
  2
Standard
 70
     0
340
55
  0
DIMSTYLE
105
59
330
A
100
AcDbSymbolTableRecord
100
AcDbDimStyleTableRecord
  2
Annotative
 70
     0
340
55
1001
AcadAnnotative
1000
AnnotativeData
1002
{
1070
     1
1070
     1
1002
}
  0
ENDTAB
  0
TABLE
  2
BLOCK_RECORD
  5
1
330
0
100
AcDbSymbolTable
 70
     4
  0
BLOCK_RECORD
  5
71
102
{ACAD_XDICTIONARY
360
2EE
102
}
330
1
100
AcDbSymbolTableRecord
100
AcDbBlockTableRecord
  2
*Model_Space
340
74
 70
     0
280
     1
281
     0
  0
BLOCK_RECORD
  5
6D
330
1
100
AcDbSymbolTableRecord
100
AcDbBlockTableRecord
  2
*Paper_Space
340
70
 70
     0
280
     1
281
     0
  0
BLOCK_RECORD
  5
75
330
1
100
AcDbSymbolTableRecord
100
AcDbBlockTableRecord
  2
*Paper_Space0
340
78
 70
     0
280
     1
281
     0
  0
BLOCK_RECORD
  5
87
330
1
100
AcDbSymbolTableRecord
100
AcDbBlockTableRecord
  2
Automatic flow rate regulator valve_Caleffi_121 DN15 - 1_2__-859151-Est - Idraulica
340
0
102
{BLKREFS
331
18B
102
}
 70
     0
280
     1
281
     0
  0
BLOCK_RECORD
  5
18C
330
1
100
AcDbSymbolTableRecord
100
AcDbBlockTableRecord
  2
Automatic flow rate regulator valve_Caleffi_121 DN15 - 1_2__-V1-Est - Idraulica
340
0
102
{BLKREFS
331
299
102
}
 70
     0
280
     1
281
     0
  0
BLOCK_RECORD
  5
29A
330
1
100
AcDbSymbolTableRecord
100
AcDbBlockTableRecord
  2
Automatic flow rate regulator valve_Caleffi_121 DN15 - 1_2__-V2-Est - Idraulica
340
0
102
{BLKREFS
331
2E7
102
}
 70
     0
280
     1
281
     0
  0
ENDTAB
  0
ENDSEC
  0
SECTION
  2
BLOCKS
  0
BLOCK
  5
72
330
71
100
AcDbEntity
  8
0
100
AcDbBlockBegin
  2
*Model_Space
 70
     0
 10
0.0
 20
0.0
 30
0.0
  3
*Model_Space
  1

  0
ENDBLK
  5
73
330
71
100
AcDbEntity
  8
0
100
AcDbBlockEnd
  0
BLOCK
  5
6E
330
6D
100
AcDbEntity
 67
     1
  8
0
100
AcDbBlockBegin
  2
*Paper_Space
 70
     0
 10
0.0
 20
0.0
 30
0.0
  3
*Paper_Space
  1

  0
ENDBLK
  5
6F
330
6D
100
AcDbEntity
 67
     1
  8
0
100
AcDbBlockEnd
  0
BLOCK
  5
76
330
75
100
AcDbEntity
 67
     1
  8
0
100
AcDbBlockBegin
  2
*Paper_Space0
 70
     0
 10
0.0
 20
0.0
 30
0.0
  3
*Paper_Space0
  1

  0
ENDBLK
  5
77
330
75
100
AcDbEntity
 67
     1
  8
0
100
AcDbBlockEnd
  0
BLOCK
  5
189
330
87
100
AcDbEntity
  8
0
100
AcDbBlockBegin
  2
Automatic flow rate regulator valve_Caleffi_121 DN15 - 1_2__-859151-Est - Idraulica
 70
     0
 10
0.0
 20
0.0
 30
0.0
  3
Automatic flow rate regulator valve_Caleffi_121 DN15 - 1_2__-859151-Est - Idraulica
  1

  0
LINE
  5
89
330
87
100
AcDbEntity
  8
M-PIPE
100
AcDbLine
 10
896.0203631491895
 20
2083.999999999993
 30
0.0
 11
896.0203631491895
 21
2086.999999999993
 31
0.0
1001
REVIT
1002
{
1070
     3
1000
856288
1002
}
  0
LINE
  5
8A
330
87
100
AcDbEntity
  8
M-PIPE
100
AcDbLine
 10
896.0203631491895
 20
2086.999999999993
 30
0.0
 11
816.0203631491896
 21
2086.999999999993
 31
0.0
1001
REVIT
1002
{
1070
     3
1000
856288
1002
}
  0
LINE
  5
8B
330
87
100
AcDbEntity
  8
M-PIPE
100
AcDbLine
 10
816.0203631491896
 20
2086.999999999993
 30
0.0
 11
816.0203631491896
 21
2083.999999999993
 31
0.0
1001
REVIT
1002
{
1070
     3
1000
856288
1002
}
  0
LINE
  5
8C
330
87
100
AcDbEntity
  8
M-PIPE
100
AcDbLine
 10
816.0203631491896
 20
2083.999999999993
 30
0.0
 11
896.0203631491895
 21
2083.999999999993
 31
0.0
1001
REVIT
1002
{
1070
     3
1000
856288
1002
}
  0
LINE
  5
8D
330
87
100
AcDbEntity
  8
M-PIPE
100
AcDbLine
 10
796.0203631491896
 20
2067.000000000025
 30
0.0
 11
813.0203631491575
 21
2083.999999999993
 31
0.0
1001
REVIT
1002
{
1070
     3
1000
856288
1002
}
  0
LINE
  5
8E
330
87
100
AcDbEntity
  8
M-PIPE
100
AcDbLine
 10
813.0203631491575
 20
2083.999999999993
 30
0.0
 11
816.0203631491896
 21
2083.999999999993
 31
0.0
1001
REVIT
1002
{
1070
     3
1000
856288
1002
}
  0
LINE
  5
8F
330
87
100
AcDbEntity
  8
M-PIPE
100
AcDbLine
 10
816.0203631491896
 20
2083.999999999993
 30
0.0
 11
816.0203631491896
 21
2086.999999999993
 31
0.0
1001
REVIT
1002
{
1070
     3
1000
856288
1002
}
  0
LINE
  5
90
330
87
100
AcDbEntity
  8
M-PIPE
100
AcDbLine
 10
816.0203631491896
 20
2086.999999999993
 30
0.0
 11
811.7777224620382
 21
2086.999999999993
 31
0.0
1001
REVIT
1002
{
1070
     3
1000
856288
1002
}
  0
LINE
  5
91
330
87
100
AcDbEntity
  8
M-PIPE
100
AcDbLine
 10
811.7777224620382
 20
2086.999999999993
 30
0.0
 11
794.7777224620702
 21
2070.000000000025
 31
0.0
1001
REVIT
1002
{
1070
     3
1000
856288
1002
}
  0
LINE
  5
92
330
87
100
AcDbEntity
  8
M-PIPE
100
AcDbLine
 10
794.7777224620702
 20
2070.000000000025
 30
0.0
 11
756.0203631491897
 21
2070.000000000025
 31
0.0
1001
REVIT
1002
{
1070
     3
1000
856288
1002
}
  0
LINE
  5
93
330
87
100
AcDbEntity
  8
M-PIPE
100
AcDbLine
 10
756.0203631491897
 20
2070.000000000025
 30
0.0
 11
756.0203631491897
 21
2067.000000000025
 31
0.0
1001
REVIT
1002
{
1070
     3
1000
856288
1002
}
  0
LINE
  5
94
330
87
100
AcDbEntity
  8
M-PIPE
100
AcDbLine
 10
756.0203631491897
 20
2067.000000000025
 30
0.0
 11
796.0203631491896
 21
2067.000000000025
 31
0.0
1001
REVIT
1002
{
1070
     3
1000
856288
1002
}
  0
LINE
  5
95
330
87
100
AcDbEntity
  8
M-PIPE
100
AcDbLine
 10
617.9996372069647
 20
2048.500000000037
 30
0.0
 11
595.0410890912733
 21
2048.500000000037
 31
0.0
1001
REVIT
1002
{
1070
     3
1000
790271
1002
}
  0
LINE
  5
96
330
87
100
AcDbEntity
  8
M-PIPE
100
AcDbLine
 10
595.0410890912734
 20
1951.500000000036
 30
0.0
 11
617.6325259043957
 21
1951.500000000036
 31
0.0
1001
REVIT
1002
{
1070
     3
1000
790271
1002
}
  0
LINE
  5
97
330
87
100
AcDbEntity
  8
M-PIPE
100
AcDbLine
 10
595.041089091265
 20
2048.500000000041
 30
0.0
 11
593.0203631491179
 21
2045.000000000069
 31
0.0
1001
REVIT
1002
{
1070
     3
1000
790271
1002
}
  0
LINE
  5
98
330
87
100
AcDbEntity
  8
M-PIPE
100
AcDbLine
 10
593.0203631491194
 20
1955.000000000036
 30
0.0
 11
595.0410890912811
 21
1951.500000000039
 31
0.0
1001
REVIT
1002
{
1070
     3
1000
790271
1002
}
  0
LINE
  5
99
330
87
100
AcDbEntity
  8
M-PIPE
100
AcDbLine
 10
620.020363149118
 20
2045.000000000069
 30
0.0
 11
617.9996372069702
 21
2048.500000000041
 31
0.0
1001
REVIT
1002
{
1070
     3
1000
790271
1002
}
  0
LINE
  5
9A
330
87
100
AcDbEntity
  8
M-PIPE
100
AcDbLine
 10
618.8803850187034
 20
1953.025499958639
 30
0.0
 11
620.0203631491193
 21
1955.000000000037
 31
0.0
1001
REVIT
1002
{
1070
     3
1000
790271
1002
}
  0
LINE
  5
9B
330
87
100
AcDbEntity
  8
M-PIPE
100
AcDbLine
 10
593.0203631491182
 20
1955.000000000035
 30
0.0
 11
593.0203631491183
 21
1961.028856829737
 31
0.0
1001
REVIT
1002
{
1070
     3
1000
790271
1002
}
  0
LINE
  5
9C
330
87
100
AcDbEntity
  8
M-PIPE
100
AcDbLine
 10
593.0203631491183
 20
1961.028856829737
 30
0.0
 11
593.0203631491179
 21
2000.000000000052
 31
0.0
1001
REVIT
1002
{
1070
     3
1000
790271
1002
}
  0
LINE
  5
9D
330
87
100
AcDbEntity
  8
M-PIPE
100
AcDbLine
 10
593.0203631491179
 20
2000.000000000052
 30
0.0
 11
593.0203631491171
 21
2038.971143170366
 31
0.0
1001
REVIT
1002
{
1070
     3
1000
790271
1002
}
  0
LINE
  5
9E
330
87
100
AcDbEntity
  8
M-PIPE
100
AcDbLine
 10
593.0203631491171
 20
2038.971143170366
 30
0.0
 11
593.0203631491168
 21
2045.000000000069
 31
0.0
1001
REVIT
1002
{
1070
     3
1000
790271
1002
}
  0
LINE
  5
9F
330
87
100
AcDbEntity
  8
M-PIPE
100
AcDbLine
 10
620.0203631491168
 20
2045.000000000069
 30
0.0
 11
620.0203631491172
 21
2038.971143170366
 31
0.0
1001
REVIT
1002
{
1070
     3
1000
790271
1002
}
  0
LINE
  5
A0
330
87
100
AcDbEntity
  8
M-PIPE
100
AcDbLine
 10
620.0203631491172
 20
2038.971143170366
 30
0.0
 11
620.020363149118
 21
2000.000000000051
 31
0.0
1001
REVIT
1002
{
1070
     3
1000
790271
1002
}
  0
LINE
  5
A1
330
87
100
AcDbEntity
  8
M-PIPE
100
AcDbLine
 10
620.020363149118
 20
2000.000000000051
 30
0.0
 11
620.0203631491184
 21
1961.028856829738
 31
0.0
1001
REVIT
1002
{
1070
     3
1000
790271
1002
}
  0
LINE
  5
A2
330
87
100
AcDbEntity
  8
M-PIPE
100
AcDbLine
 10
620.0203631491184
 20
1961.028856829738
 30
0.0
 11
620.0203631491182
 21
1955.000000000036
 31
0.0
1001
REVIT
1002
{
1070
     3
1000
790271
1002
}
  0
LINE
  5
A3
330
87
100
AcDbEntity
  8
M-PIPE
100
AcDbLine
 10
595.0410890912625
 20
2048.016169427897
 30
0.0
 11
617.999637206971
 21
2048.016169427897
 31
0.0
1001
REVIT
1002
{
1070
     3
1000
790271
1002
}
  0
LINE
  5
A4
330
87
100
AcDbEntity
  8
M-PIPE
100
AcDbLine
 10
617.9996372069637
 20
2048.016169427897
 30
0.0
 11
617.9996372069637
 21
2048.500000000036
 31
0.0
1001
REVIT
1002
{
1070
     3
1000
790271
1002
}
  0
LINE
  5
A5
330
87
100
AcDbEntity
  8
M-PIPE
100
AcDbLine
 10
595.0410890912722
 20
2048.500000000036
 30
0.0
 11
595.0410890912722
 21
2048.016169427897
 31
0.0
1001
REVIT
1002
{
1070
     3
1000
790271
1002
}
  0
LINE
  5
A6
330
87
100
AcDbEntity
  8
M-PIPE
100
AcDbLine
 10
617.9996372069638
 20
1951.810450133667
 30
0.0
 11
617.9996372069638
 21
1951.983830572173
 31
0.0
1001
REVIT
1002
{
1070
     3
1000
790271
1002
}
  0
LINE
  5
A7
330
87
100
AcDbEntity
  8
M-PIPE
100
AcDbLine
 10
595.0410890912723
 20
1951.983830572173
 30
0.0
 11
595.0410890912723
 21
1951.500000000035
 31
0.0
1001
REVIT
1002
{
1070
     3
1000
790271
1002
}
  0
LINE
  5
A8
330
87
100
AcDbEntity
  8
M-PIPE
100
AcDbLine
 10
617.9996372069533
 20
1951.983830572173
 30
0.0
 11
595.0410890912827
 21
1951.983830572173
 31
0.0
1001
REVIT
1002
{
1070
     3
1000
790271
1002
}
  0
SPLINE
  5
A9
330
87
100
AcDbEntity
  8
M-PIPE
100
AcDbSpline
210
0.0
220
0.0
230
1.0
 70
     8
 71
     3
 72
     9
 73
     5
 74
     0
 42
0.000000001
 43
0.0000000001
 40
0.0
 40
0.0
 40
0.0
 40
0.0
 40
0.5
 40
1.0
 40
1.0
 40
1.0
 40
1.0
 10
617.9996372069533
 20
1951.983830572173
 30
0.0
 10
618.6625710388406
 20
1953.486905993073
 30
0.0
 10
619.6622925277555
 20
1956.497485790234
 30
0.0
 10
620.0097216669505
 20
1959.516923498114
 30
0.0
 10
620.0203631491181
 20
1961.028856829734
 30
0.0
1001
REVIT
1002
{
1070
     3
1000
790271
1002
}
  0
SPLINE
  5
AA
330
87
100
AcDbEntity
  8
M-PIPE
100
AcDbSpline
210
0.0
220
0.0
230
1.0
 70
     8
 71
     3
 72
     9
 73
     5
 74
     0
 42
0.000000001
 43
0.0000000001
 40
0.0
 40
0.0
 40
0.0
 40
0.0
 40
0.5
 40
1.0
 40
1.0
 40
1.0
 40
1.0
 10
620.0203631491181
 20
1961.028856829734
 30
0.0
 10
620.0097216669505
 20
1962.540790161354
 30
0.0
 10
619.6622925277554
 20
1965.560227869235
 30
0.0
 10
618.6625710388399
 20
1968.570807666397
 30
0.0
 10
617.9996372069523
 20
1970.073883087297
 30
0.0
1001
REVIT
1002
{
1070
     3
1000
790271
1002
}
  0
SPLINE
  5
AB
330
87
100
AcDbEntity
  8
M-PIPE
100
AcDbSpline
210
0.0
220
0.0
230
1.0
 70
     8
 71
     3
 72
     9
 73
     5
 74
     0
 42
0.000000001
 43
0.0000000001
 40
0.0
 40
0.0
 40
0.0
 40
0.0
 40
0.5
 40
1.0
 40
1.0
 40
1.0
 40
1.0
 10
595.0410890912839
 20
1970.073883087297
 30
0.0
 10
594.3781552593962
 20
1968.570807666397
 30
0.0
 10
593.3784337704808
 20
1965.560227869235
 30
0.0
 10
593.0310046312857
 20
1962.540790161354
 30
0.0
 10
593.020363149118
 20
1961.028856829734
 30
0.0
1001
REVIT
1002
{
1070
     3
1000
790271
1002
}
  0
SPLINE
  5
AC
330
87
100
AcDbEntity
  8
M-PIPE
100
AcDbSpline
210
0.0
220
0.0
230
1.0
 70
     8
 71
     3
 72
     9
 73
     5
 74
     0
 42
0.000000001
 43
0.0000000001
 40
0.0
 40
0.0
 40
0.0
 40
0.0
 40
0.5
 40
1.0
 40
1.0
 40
1.0
 40
1.0
 10
593.020363149118
 20
1961.028856829734
 30
0.0
 10
593.0310046312857
 20
1959.516923498114
 30
0.0
 10
593.3784337704806
 20
1956.497485790234
 30
0.0
 10
594.3781552593955
 20
1953.486905993073
 30
0.0
 10
595.0410890912827
 20
1951.983830572173
 30
0.0
1001
REVIT
1002
{
1070
     3
1000
790271
1002
}
  0
LINE
  5
AD
330
87
100
AcDbEntity
  8
M-PIPE
100
AcDbLine
 10
617.9996372069523
 20
1970.073883087297
 30
0.0
 11
595.0410890912839
 21
1970.073883087297
 31
0.0
1001
REVIT
1002
{
1070
     3
1000
790271
1002
}
  0
LINE
  5
AE
330
87
100
AcDbEntity
  8
M-PIPE
100
AcDbLine
 10
617.9996372069638
 20
1970.073883087297
 30
0.0
 11
617.9996372069638
 21
1981.909947484908
 31
0.0
1001
REVIT
1002
{
1070
     3
1000
790271
1002
}
  0
LINE
  5
AF
330
87
100
AcDbEntity
  8
M-PIPE
100
AcDbLine
 10
595.0410890912722
 20
1981.909947484908
 30
0.0
 11
595.0410890912722
 21
1970.073883087297
 31
0.0
1001
REVIT
1002
{
1070
     3
1000
790271
1002
}
  0
LINE
  5
B0
330
87
100
AcDbEntity
  8
M-PIPE
100
AcDbLine
 10
617.9996372069535
 20
1981.909947484909
 30
0.0
 11
595.0410890912824
 21
1981.909947484909
 31
0.0
1001
REVIT
1002
{
1070
     3
1000
790271
1002
}
  0
SPLINE
  5
B1
330
87
100
AcDbEntity
  8
M-PIPE
100
AcDbSpline
210
0.0
220
0.0
230
1.0
 70
     8
 71
     3
 72
     9
 73
     5
 74
     0
 42
0.000000001
 43
0.0000000001
 40
0.0
 40
0.0
 40
0.0
 40
0.0
 40
0.5
 40
1.0
 40
1.0
 40
1.0
 40
1.0
 10
617.9996372069535
 20
1981.909947484909
 30
0.0
 10
618.662571038843
 20
1984.916098326712
 30
0.0
 10
619.6622925277599
 20
1990.93725792104
 30
0.0
 10
620.0097216669526
 20
1996.976133336807
 30
0.0
 10
620.020363149118
 20
2000.000000000051
 30
0.0
1001
REVIT
1002
{
1070
     3
1000
790271
1002
}
  0
SPLINE
  5
B2
330
87
100
AcDbEntity
  8
M-PIPE
100
AcDbSpline
210
0.0
220
0.0
230
1.0
 70
     8
 71
     3
 72
     9
 73
     5
 74
     0
 42
0.000000001
 43
0.0000000001
 40
0.0
 40
0.0
 40
0.0
 40
0.0
 40
0.5
 40
1.0
 40
1.0
 40
1.0
 40
1.0
 10
620.020363149118
 20
2000.000000000051
 30
0.0
 10
620.0097216669527
 20
2003.023866663288
 30
0.0
 10
619.6622925277611
 20
2009.062742079045
 30
0.0
 10
618.6625710388474
 20
2015.083901673361
 30
0.0
 10
617.9996372069601
 20
2018.09005251516
 30
0.0
1001
REVIT
1002
{
1070
     3
1000
790271
1002
}
  0
SPLINE
  5
B3
330
87
100
AcDbEntity
  8
M-PIPE
100
AcDbSpline
210
0.0
220
0.0
230
1.0
 70
     8
 71
     3
 72
     9
 73
     5
 74
     0
 42
0.000000001
 43
0.0000000001
 40
0.0
 40
0.0
 40
0.0
 40
0.0
 40
0.5
 40
1.0
 40
1.0
 40
1.0
 40
1.0
 10
595.0410890912747
 20
2018.09005251516
 30
0.0
 10
594.3781552593875
 20
2015.083901673361
 30
0.0
 10
593.3784337704743
 20
2009.062742079045
 30
0.0
 10
593.031004631283
 20
2003.023866663289
 30
0.0
 10
593.0203631491179
 20
2000.000000000052
 30
0.0
1001
REVIT
1002
{
1070
     3
1000
790271
1002
}
  0
SPLINE
  5
B4
330
87
100
AcDbEntity
  8
M-PIPE
100
AcDbSpline
210
0.0
220
0.0
230
1.0
 70
     8
 71
     3
 72
     9
 73
     5
 74
     0
 42
0.000000001
 43
0.0000000001
 40
0.0
 40
0.0
 40
0.0
 40
0.0
 40
0.5
 40
1.0
 40
1.0
 40
1.0
 40
1.0
 10
593.0203631491179
 20
2000.000000000052
 30
0.0
 10
593.0310046312833
 20
1996.976133336809
 30
0.0
 10
593.3784337704757
 20
1990.937257921041
 30
0.0
 10
594.3781552593927
 20
1984.916098326713
 30
0.0
 10
595.0410890912824
 20
1981.909947484909
 30
0.0
1001
REVIT
1002
{
1070
     3
1000
790271
1002
}
  0
LINE
  5
B5
330
87
100
AcDbEntity
  8
M-PIPE
100
AcDbLine
 10
617.9996372069601
 20
2018.09005251516
 30
0.0
 11
595.0410890912747
 21
2018.09005251516
 31
0.0
1001
REVIT
1002
{
1070
     3
1000
790271
1002
}
  0
LINE
  5
B6
330
87
100
AcDbEntity
  8
M-PIPE
100
AcDbLine
 10
617.9996372069637
 20
2018.09005251516
 30
0.0
 11
617.9996372069637
 21
2029.926116912772
 31
0.0
1001
REVIT
1002
{
1070
     3
1000
790271
1002
}
  0
LINE
  5
B7
330
87
100
AcDbEntity
  8
M-PIPE
100
AcDbLine
 10
595.0410890912722
 20
2029.926116912772
 30
0.0
 11
595.0410890912722
 21
2018.09005251516
 31
0.0
1001
REVIT
1002
{
1070
     3
1000
790271
1002
}
  0
SPLINE
  5
B8
330
87
100
AcDbEntity
  8
M-PIPE
100
AcDbSpline
210
0.0
220
0.0
230
1.0
 70
     8
 71
     3
 72
     9
 73
     5
 74
     0
 42
0.000000001
 43
0.0000000001
 40
0.0
 40
0.0
 40
0.0
 40
0.0
 40
0.5
 40
1.0
 40
1.0
 40
1.0
 40
1.0
 10
595.0410890912625
 20
2048.016169427897
 30
0.0
 10
594.3781552593732
 20
2046.513094006999
 30
0.0
 10
593.3784337704598
 20
2043.502514209841
 30
0.0
 10
593.0310046312769
 20
2040.483076501963
 30
0.0
 10
593.0203631491179
 20
2038.971143170345
 30
0.0
1001
REVIT
1002
{
1070
     3
1000
790271
1002
}
  0
SPLINE
  5
B9
330
87
100
AcDbEntity
  8
M-PIPE
100
AcDbSpline
210
0.0
220
0.0
230
1.0
 70
     8
 71
     3
 72
     9
 73
     5
 74
     0
 42
0.000000001
 43
0.0000000001
 40
0.0
 40
0.0
 40
0.0
 40
0.0
 40
0.5
 40
1.0
 40
1.0
 40
1.0
 40
1.0
 10
593.0203631491179
 20
2038.971143170345
 30
0.0
 10
593.031004631277
 20
2037.459209838722
 30
0.0
 10
593.3784337704614
 20
2034.439772130838
 30
0.0
 10
594.3781552593791
 20
2031.429192333674
 30
0.0
 10
595.0410890912713
 20
2029.926116912772
 30
0.0
1001
REVIT
1002
{
1070
     3
1000
790271
1002
}
  0
LINE
  5
BA
330
87
100
AcDbEntity
  8
M-PIPE
100
AcDbLine
 10
617.9996372069632
 20
2029.926116912772
 30
0.0
 11
595.0410890912713
 21
2029.926116912772
 31
0.0
1001
REVIT
1002
{
1070
     3
1000
790271
1002
}
  0
SPLINE
  5
BB
330
87
100
AcDbEntity
  8
M-PIPE
100
AcDbSpline
210
0.0
220
0.0
230
1.0
 70
     8
 71
     3
 72
     9
 73
     5
 74
     0
 42
0.000000001
 43
0.0000000001
 40
0.0
 40
0.0
 40
0.0
 40
0.0
 40
0.5
 40
1.0
 40
1.0
 40
1.0
 40
1.0
 10
617.9996372069632
 20
2029.926116912772
 30
0.0
 10
618.662571038855
 20
2031.429192333674
 30
0.0
 10
619.6622925277725
 20
2034.439772130838
 30
0.0
 10
620.0097216669582
 20
2037.459209838722
 30
0.0
 10
620.020363149118
 20
2038.971143170344
 30
0.0
1001
REVIT
1002
{
1070
     3
1000
790271
1002
}
  0
SPLINE
  5
BC
330
87
100
AcDbEntity
  8
M-PIPE
100
AcDbSpline
210
0.0
220
0.0
230
1.0
 70
     8
 71
     3
 72
     9
 73
     5
 74
     0
 42
0.000000001
 43
0.0000000001
 40
0.0
 40
0.0
 40
0.0
 40
0.0
 40
0.5
 40
1.0
 40
1.0
 40
1.0
 40
1.0
 10
620.020363149118
 20
2038.971143170344
 30
0.0
 10
620.0097216669582
 20
2040.483076501963
 30
0.0
 10
619.6622925277739
 20
2043.502514209841
 30
0.0
 10
618.6625710388601
 20
2046.513094006999
 30
0.0
 10
617.999637206971
 20
2048.016169427897
 30
0.0
1001
REVIT
1002
{
1070
     3
1000
790271
1002
}
  0
LINE
  5
BD
330
87
100
AcDbEntity
  8
P-SANR-FIXT
100
AcDbLine
 10
803.0203631491859
 20
1969.500000000038
 30
0.0
 11
829.0203631491861
 21
1969.500000000038
 31
0.0
  0
LINE
  5
BE
330
87
100
AcDbEntity
  8
P-SANR-FIXT
100
AcDbLine
 10
829.0203631491861
 20
2030.500000000039
 30
0.0
 11
803.0203631491859
 21
2030.500000000039
 31
0.0
  0
LINE
  5
BF
330
87
100
AcDbEntity
  8
P-SANR-FIXT
100
AcDbLine
 10
829.0203631491847
 20
2030.500000000038
 30
0.0
 11
829.0203631491847
 21
2030.295404617231
 31
0.0
  0
LINE
  5
C0
330
87
100
AcDbEntity
  8
P-SANR-FIXT
100
AcDbLine
 10
829.0203631491847
 20
2030.295404617231
 30
0.0
 11
829.0203631491847
 21
2018.202017994813
 31
0.0
  0
LINE
  5
C1
330
87
100
AcDbEntity
  8
P-SANR-FIXT
100
AcDbLine
 10
829.0203631491847
 20
2018.202017994813
 30
0.0
 11
829.0203631491847
 21
2012.093386622525
 31
0.0
  0
LINE
  5
C2
330
87
100
AcDbEntity
  8
P-SANR-FIXT
100
AcDbLine
 10
829.0203631491847
 20
2012.093386622525
 30
0.0
 11
829.0203631491847
 21
1987.906613377629
 31
0.0
  0
LINE
  5
C3
330
87
100
AcDbEntity
  8
P-SANR-FIXT
100
AcDbLine
 10
829.0203631491847
 20
1987.906613377629
 30
0.0
 11
829.0203631491847
 21
1981.797982005332
 31
0.0
  0
LINE
  5
C4
330
87
100
AcDbEntity
  8
P-SANR-FIXT
100
AcDbLine
 10
829.0203631491847
 20
1981.797982005332
 30
0.0
 11
829.0203631491847
 21
1969.704595382854
 31
0.0
  0
LINE
  5
C5
330
87
100
AcDbEntity
  8
P-SANR-FIXT
100
AcDbLine
 10
829.0203631491847
 20
1969.704595382854
 30
0.0
 11
829.0203631491847
 21
1969.500000000038
 31
0.0
  0
LINE
  5
C6
330
87
100
AcDbEntity
  8
P-SANR-FIXT
100
AcDbLine
 10
829.0203631491847
 20
1969.704595382854
 30
0.0
 11
803.0203631491847
 21
1969.704595382854
 31
0.0
  0
LINE
  5
C7
330
87
100
AcDbEntity
  8
P-SANR-FIXT
100
AcDbLine
 10
829.0203631491847
 20
1981.797982005332
 30
0.0
 11
803.0203631491847
 21
1981.797982005332
 31
0.0
  0
LINE
  5
C8
330
87
100
AcDbEntity
  8
P-SANR-FIXT
100
AcDbLine
 10
829.0203631491847
 20
1987.906613377629
 30
0.0
 11
803.0203631491847
 21
1987.906613377629
 31
0.0
  0
LINE
  5
C9
330
87
100
AcDbEntity
  8
P-SANR-FIXT
100
AcDbLine
 10
829.0203631491847
 20
2012.093386622525
 30
0.0
 11
803.0203631491847
 21
2012.093386622525
 31
0.0
  0
LINE
  5
CA
330
87
100
AcDbEntity
  8
P-SANR-FIXT
100
AcDbLine
 10
829.0203631491847
 20
2018.202017994813
 30
0.0
 11
803.0203631491847
 21
2018.202017994813
 31
0.0
  0
LINE
  5
CB
330
87
100
AcDbEntity
  8
P-SANR-FIXT
100
AcDbLine
 10
829.0203631491847
 20
2030.295404617231
 30
0.0
 11
803.0203631491847
 21
2030.295404617231
 31
0.0
  0
LINE
  5
CC
330
87
100
AcDbEntity
  8
P-SANR-FIXT
100
AcDbLine
 10
576.0203631491379
 20
1969.499999999953
 30
0.0
 11
593.0203631491194
 21
1969.499999999953
 31
0.0
  0
LINE
  5
CD
330
87
100
AcDbEntity
  8
P-SANR-FIXT
100
AcDbLine
 10
593.0203631491184
 20
2030.500000000039
 30
0.0
 11
576.0203631491379
 21
2030.500000000039
 31
0.0
  0
LINE
  5
CE
330
87
100
AcDbEntity
  8
P-SANR-FIXT
100
AcDbLine
 10
576.020363149137
 20
1969.499999999952
 30
0.0
 11
576.020363149137
 21
1969.704595382767
 31
0.0
  0
LINE
  5
CF
330
87
100
AcDbEntity
  8
P-SANR-FIXT
100
AcDbLine
 10
576.020363149137
 20
1969.704595382767
 30
0.0
 11
576.020363149137
 21
1981.797982005207
 31
0.0
  0
LINE
  5
D0
330
87
100
AcDbEntity
  8
P-SANR-FIXT
100
AcDbLine
 10
576.020363149137
 20
1981.797982005207
 30
0.0
 11
576.020363149137
 21
1987.906613377554
 31
0.0
  0
LINE
  5
D1
330
87
100
AcDbEntity
  8
P-SANR-FIXT
100
AcDbLine
 10
576.020363149137
 20
1987.906613377554
 30
0.0
 11
576.020363149137
 21
2012.093386622434
 31
0.0
  0
LINE
  5
D2
330
87
100
AcDbEntity
  8
P-SANR-FIXT
100
AcDbLine
 10
576.020363149137
 20
2012.093386622434
 30
0.0
 11
576.020363149137
 21
2018.202017994782
 31
0.0
  0
LINE
  5
D3
330
87
100
AcDbEntity
  8
P-SANR-FIXT
100
AcDbLine
 10
576.020363149137
 20
2018.202017994782
 30
0.0
 11
576.020363149137
 21
2030.295404617223
 31
0.0
  0
LINE
  5
D4
330
87
100
AcDbEntity
  8
P-SANR-FIXT
100
AcDbLine
 10
576.020363149137
 20
2030.295404617223
 30
0.0
 11
576.020363149137
 21
2030.500000000038
 31
0.0
  0
LINE
  5
D5
330
87
100
AcDbEntity
  8
P-SANR-FIXT
100
AcDbLine
 10
593.0203631491183
 20
1969.704595382767
 30
0.0
 11
576.020363149137
 21
1969.704595382767
 31
0.0
  0
LINE
  5
D6
330
87
100
AcDbEntity
  8
P-SANR-FIXT
100
AcDbLine
 10
593.0203631491182
 20
1981.797982005207
 30
0.0
 11
576.020363149137
 21
1981.797982005207
 31
0.0
  0
LINE
  5
D7
330
87
100
AcDbEntity
  8
P-SANR-FIXT
100
AcDbLine
 10
593.0203631491182
 20
1987.906613377554
 30
0.0
 11
576.020363149137
 21
1987.906613377554
 31
0.0
  0
LINE
  5
D8
330
87
100
AcDbEntity
  8
P-SANR-FIXT
100
AcDbLine
 10
593.0203631491176
 20
2012.093386622434
 30
0.0
 11
576.020363149137
 21
2012.093386622434
 31
0.0
  0
LINE
  5
D9
330
87
100
AcDbEntity
  8
P-SANR-FIXT
100
AcDbLine
 10
593.0203631491176
 20
2018.202017994782
 30
0.0
 11
576.020363149137
 21
2018.202017994782
 31
0.0
  0
LINE
  5
DA
330
87
100
AcDbEntity
  8
P-SANR-FIXT
100
AcDbLine
 10
593.0203631491173
 20
2030.295404617223
 30
0.0
 11
576.020363149137
 21
2030.295404617223
 31
0.0
  0
LINE
  5
DB
330
87
100
AcDbEntity
  8
P-SANR-FIXT
100
AcDbLine
 10
768.520363149189
 20
2067.000000000026
 30
0.0
 11
768.520363149189
 21
2052.999999999995
 31
0.0
  0
LINE
  5
DC
330
87
100
AcDbEntity
  8
P-SANR-FIXT
100
AcDbLine
 10
783.5203631491881
 20
2052.999999999995
 30
0.0
 11
783.5203631491881
 21
2067.000000000026
 31
0.0
  0
LINE
  5
DD
330
87
100
AcDbEntity
  8
P-SANR-FIXT
100
AcDbLine
 10
729.2703631491885
 20
2023.999999999996
 30
0.0
 11
724.2360310206382
 21
2023.999999999996
 31
0.0
  0
LINE
  5
DE
330
87
100
AcDbEntity
  8
P-SANR-FIXT
100
AcDbLine
 10
747.8923178891847
 20
1969.192570109436
 30
0.0
 11
751.2062083421845
 21
1965.878679656436
 31
0.0
  0
LINE
  5
DF
330
87
100
AcDbEntity
  8
P-SANR-FIXT
100
AcDbLine
 10
751.2062083421841
 20
2034.121320343555
 30
0.0
 11
746.7703631491883
 21
2029.685475150559
 31
0.0
  0
LWPOLYLINE
  5
E0
330
87
100
AcDbEntity
  8
P-SANR-FIXT
100
AcDbPolyline
 90
       21
 70
   128
 43
0.0
 10
751.2062083421841
 20
2034.121320343555
 10
751.2927353603324
 20
2034.204453701678
 10
751.3825176137353
 20
2034.284060404137
 10
751.4754114699398
 20
2034.360013097189
 10
751.5712683185922
 20
2034.432190272728
 10
751.6699348091832
 20
2034.500476462671
 10
751.7712530963756
 20
2034.564762423679
 10
751.8750610925232
 20
2034.62494531193
 10
751.9811927269767
 20
2034.68092884764
 10
752.0894782117612
 20
2034.732623469095
 10
752.1997443132009
 20
2034.779946475928
 10
752.3118146290554
 20
2034.822822161423
 10
752.4255098707262
 20
2034.86118193363
 10
752.540648150081
 20
2034.894964425096
 10
752.6570452704338
 20
2034.924115591041
 10
752.7745150212224
 20
2034.948588795819
 10
752.8928694759041
 20
2034.968344887522
 10
753.0119192925992
 20
2034.983352260618
 10
753.1314740169969
 20
2034.993586906512
 10
753.2513423870421
 20
2034.999032451953
 10
753.3275286857438
 20
2034.999999999996
  0
LWPOLYLINE
  5
E1
330
87
100
AcDbEntity
  8
P-SANR-FIXT
100
AcDbPolyline
 90
       21
 70
   128
 43
0.0
 10
753.327528685744
 20
1964.999999999995
 10
753.2075606831841
 20
1965.002399680013
 10
753.0877846038365
 20
1965.009594881087
 10
752.9683920638774
 20
1965.021574092434
 10
752.8495740659013
 20
1965.038318149868
 10
752.7315206933589
 20
1965.059800266472
 10
752.6144208064627
 20
1965.085986075439
 10
752.4984617400516
 20
1965.116833685063
 10
752.3838290038955
 20
1965.152293745748
 10
752.2707059859187
 20
1965.192309528962
 10
752.1592736588181
 20
1965.236817017987
 10
752.049710290546
 20
1965.285745010335
 10
751.9421911591197
 20
1965.339015231657
 10
751.836888272213
 20
1965.396542460963
 10
751.7339700919814
 20
1965.458234666955
 10
751.6336012655589
 20
1965.523993155267
 10
751.535942361657
 20
1965.593712726342
 10
751.4411496136887
 20
1965.667281843743
 10
751.3493746698296
 20
1965.744582812573
 10
751.2607643504125
 20
1965.825491967773
 10
751.2062083421845
 20
1965.878679656436
  0
LINE
  5
E2
330
87
100
AcDbEntity
  8
P-SANR-FIXT
100
AcDbLine
 10
753.327528685744
 20
1964.999999999995
 30
0.0
 11
791.9198244891637
 21
1964.999999999995
 31
0.0
  0
LINE
  5
E3
330
87
100
AcDbEntity
  8
P-SANR-FIXT
100
AcDbLine
 10
791.9198244891634
 20
2034.999999999996
 30
0.0
 11
790.5203631491859
 21
2034.999999999996
 31
0.0
  0
LINE
  5
E4
330
87
100
AcDbEntity
  8
P-SANR-FIXT
100
AcDbLine
 10
761.5203631491858
 20
2034.999999999996
 30
0.0
 11
753.3275286857438
 21
2034.999999999996
 31
0.0
  0
LINE
  5
E5
330
87
100
AcDbEntity
  8
P-SANR-FIXT
100
AcDbLine
 10
791.9198244891637
 20
1964.999999999995
 30
0.0
 11
794.0848879986249
 21
1961.249999999996
 31
0.0
  0
LINE
  5
E6
330
87
100
AcDbEntity
  8
P-SANR-FIXT
100
AcDbLine
 10
794.0848879986246
 20
2038.749999999996
 30
0.0
 11
791.9198244891634
 21
2034.999999999996
 31
0.0
  0
LINE
  5
E7
330
87
100
AcDbEntity
  8
P-SANR-FIXT
100
AcDbLine
 10
794.0848879986249
 20
1961.249999999996
 30
0.0
 11
800.0203631491862
 21
1961.249999999996
 31
0.0
  0
LINE
  5
E8
330
87
100
AcDbEntity
  8
P-SANR-FIXT
100
AcDbLine
 10
800.020363149186
 20
2038.749999999996
 30
0.0
 11
794.0848879986246
 21
2038.749999999996
 31
0.0
  0
LWPOLYLINE
  5
E9
330
87
100
AcDbEntity
  8
P-SANR-FIXT
100
AcDbPolyline
 90
       19
 70
   128
 43
0.0
 10
719.0937301431456
 20
2022.128355544947
 10
719.3429122932665
 20
2022.329090702446
 10
719.5999223895413
 20
2022.519700664955
 10
719.8643492706422
 20
2022.699880497195
 10
720.1357699099673
 20
2022.869341949872
 10
720.4137500923938
 20
2023.027813920809
 10
720.6978451089293
 20
2023.175042888661
 10
720.9876004681505
 20
2023.310793318485
 10
721.2825526232942
 20
2023.434848038552
 10
721.5822297138317
 20
2023.547008587774
 10
721.8861523203462
 20
2023.647095533197
 10
722.1938342315004
 20
2023.734948757061
 10
722.5047832218718
 20
2023.810427712949
 10
722.818501839408
 20
2023.873411650631
 10
723.1344882012441
 20
2023.923799809244
 10
723.452236796608
 20
2023.961511578482
 10
723.77123929553
 20
2023.98648662756
 10
724.0909853620617
 20
2023.998685001727
 10
724.2360310206379
 20
2023.999999999996
  0
LINE
  5
EA
330
87
100
AcDbEntity
  8
P-SANR-FIXT
100
AcDbLine
 10
719.0937301431456
 20
2022.128355544947
 30
0.0
 11
716.455828126152
 21
2019.914892935406
 31
0.0
  0
LINE
  5
EB
330
87
100
AcDbEntity
  8
P-SANR-FIXT
100
AcDbLine
 10
643.2262688974487
 20
1903.885602744668
 30
0.0
 11
651.6527577717575
 21
1910.95626645122
 31
0.0
  0
LINE
  5
EC
330
87
100
AcDbEntity
  8
P-SANR-FIXT
100
AcDbLine
 10
631.3207515667778
 20
1935.187007890652
 30
0.0
 11
622.8942626924692
 21
1928.1163441841
 31
0.0
  0
LINE
  5
ED
330
87
100
AcDbEntity
  8
P-SANR-FIXT
100
AcDbLine
 10
665.6333882824399
 20
1894.294799813382
 30
0.0
 11
706.616765989305
 21
1928.683936931612
 31
0.0
  0
LINE
  5
EE
330
87
100
AcDbEntity
  8
P-SANR-FIXT
100
AcDbLine
 10
623.9281032669188
 20
1957.376447971794
 30
0.0
 11
618.9581427718372
 21
1953.206155953406
 31
0.0
  0
LINE
  5
EF
330
87
100
AcDbEntity
  8
P-SANR-FIXT
100
AcDbLine
 10
706.6167659893046
 20
1928.683936931612
 30
0.0
 11
706.9865364896021
 21
1932.910433090029
 31
0.0
  0
LINE
  5
F0
330
87
100
AcDbEntity
  8
P-SANR-FIXT
100
AcDbLine
 10
706.9865364896022
 20
1932.910433090029
 30
0.0
 11
743.3736475377536
 21
1963.44284455014
 31
0.0
  0
LINE
  5
F1
330
87
100
AcDbEntity
  8
P-SANR-FIXT
100
AcDbLine
 10
742.4094661232238
 20
1964.591911214818
 30
0.0
 11
747.8923178891847
 21
1969.192570109436
 31
0.0
  0
LINE
  5
F2
330
87
100
AcDbEntity
  8
P-SANR-FIXT
100
AcDbLine
 10
708.0820958580123
 20
2022.115699315081
 30
0.0
 11
701.9854428206272
 21
2016.999999999995
 31
0.0
  0
LWPOLYLINE
  5
F3
330
87
100
AcDbEntity
  8
P-SANR-FIXT
100
AcDbPolyline
 90
       37
 70
   128
 43
0.0
 10
730.1893869704913
 20
2003.547874843561
 10
729.4802452832936
 20
2004.392996996937
 10
728.777000669212
 20
2005.231091292241
 10
728.0807781696121
 20
2006.060816957384
 10
727.3926915919735
 20
2006.880846608301
 10
726.7138417280365
 20
2007.68986837248
 10
726.0453145927701
 20
2008.486587987681
 10
725.3881796869785
 20
2009.269730872476
 10
724.7434882863303
 20
2010.038044165314
 10
724.1122717595395
 20
2010.790298728822
 10
723.4955399183966
 20
2011.525291116171
 10
722.8942794022849
 20
2012.241845496332
 10
722.3094520997683
 20
2012.938815535154
 10
721.7419936097741
 20
2013.615086229252
 10
721.1928117448352
 20
2014.26957568978
 10
720.6627850787826
 20
2014.901236873219
 10
720.1527615412161
 20
2015.509059256422
 10
719.6635570609962
 20
2016.092070453237
 10
719.1959542609335
 20
2016.649337770119
 10
718.7507012057579
 20
2017.179969698238
 10
718.3285102053758
 20
2017.683117339704
 10
717.9300566753246
 20
2018.157975765625
 10
717.5559780562539
 20
2018.603785303815
 10
717.2068727941551
 20
2019.019832754115
 10
716.8832993829757
 20
2019.405452529356
 10
716.5857754711479
 20
2019.760027720159
 10
716.3147770334627
 20
2020.082991081858
 10
716.0707376096104
 20
2020.373825941969
 10
715.8540476106098
 20
2020.632067026757
 10
715.6650536942351
 20
2020.857301205575
 10
715.5040582104355
 20
2021.049168151785
 10
715.3713187176416
 20
2021.2073609192
 10
715.2670475707253
 20
2021.331626433142
 10
715.1914115812786
 20
2021.421765895294
 10
715.1445317507499
 20
2021.477635101748
 10
715.126483076867
 20
2021.499144673689
 10
715.12625612204
 20
2021.499415147919
  0
LWPOLYLINE
  5
F4
330
87
100
AcDbEntity
  8
P-SANR-FIXT
100
AcDbPolyline
 90
        6
 70
   128
 43
0.0
 10
743.2690249915502
 20
1987.960169242132
 10
742.6632616975361
 20
1988.682089824035
 10
742.0423054626024
 20
1989.422116647861
 10
741.4071496842616
 20
1990.179065828555
 10
740.7588104762663
 20
1990.951726408904
 10
740.2928892450487
 20
1991.506989710073
  0
LWPOLYLINE
  5
F5
330
87
100
AcDbEntity
  8
P-SANR-FIXT
100
AcDbPolyline
 90
       41
 70
   128
 43
0.0
 10
708.0820958580123
 20
2022.115699315081
 10
708.2378347018379
 20
2022.241158788518
 10
708.3984660120099
 20
2022.360290015086
 10
708.5637328126978
 20
2022.472902410236
 10
708.7333707122759
 20
2022.578815818159
 10
708.9071083262926
 20
2022.677860799995
 10
709.0846677116271
 20
2022.769878904902
 10
709.2657648111403
 20
2022.854722923542
 10
709.4501099081051
 20
2022.932257123584
 10
709.6374080896914
 20
2023.002357466848
 10
709.8273597187628
 20
2023.064911807737
 10
710.0196609132341
 20
2023.119820072653
 10
710.2140040322162
 20
2023.166994420082
 10
710.4100781681763
 20
2023.206359381134
 10
710.607569644324
 20
2023.237851980267
 10
710.8061625164264
 20
2023.261421836041
 10
711.0055390782526
 20
2023.277031241715
 10
711.2053803698349
 20
2023.284655225569
 10
711.4053666877373
 20
2023.284281590856
 10
711.6051780965129
 20
2023.275910935312
 10
711.8044949405317
 20
2023.259556650199
 10
712.0029983553616
 20
2023.235244898886
 10
712.2003707778844
 20
2023.203014574987
 10
712.3962964543278
 20
2023.162917240147
 10
712.5904619454048
 20
2023.115017041547
 10
712.7825566277493
 20
2023.059390609286
 10
712.9722731908477
 20
2022.99612693379
 10
713.1593081286697
 20
2022.925327223445
 10
713.3433622252134
 20
2022.847104742683
 10
713.5241410331872
 20
2022.761584630787
 10
713.7013553450624
 20
2022.668903701693
 10
713.8747216557436
 20
2022.569210225117
 10
714.0439626161167
 20
2022.462663689353
 10
714.2088074767477
 20
2022.349434546132
 10
714.3689925210251
 20
2022.229703937928
 10
714.5242614870485
 20
2022.103663408172
 10
714.6743659775948
 20
2021.971514594825
 10
714.8190658574995
 20
2021.833468907798
 10
714.9581296378228
 20
2021.689747190743
 10
715.0913348461813
 20
2021.540579367748
 10
715.12625612204
 20
2021.499415147919
  0
LWPOLYLINE
  5
F6
330
87
100
AcDbEntity
  8
P-SANR-FIXT
100
AcDbPolyline
 90
        4
 70
   128
 43
0.0
 10
715.12625612204
 20
2021.499415147919
 10
715.1406863189167
 20
2021.48221790895
 10
715.1839538243102
 20
2021.430653703955
 10
715.2210868062203
 20
2021.38640033936
  0
LINE
  5
F7
330
87
100
AcDbEntity
  8
P-SANR-FIXT
100
AcDbLine
 10
621.906796490381
 20
1959.785347584468
 30
0.0
 11
623.9281032669188
 21
1957.376447971794
 31
0.0
  0
LINE
  5
F8
330
87
100
AcDbEntity
  8
P-SANR-FIXT
100
AcDbLine
 10
661.945113746756
 20
2016.999999999995
 30
0.0
 11
660.0203631491857
 21
2038.999999999996
 31
0.0
  0
LINE
  5
F9
330
87
100
AcDbEntity
  8
P-SANR-FIXT
100
AcDbLine
 10
620.0203631491194
 20
1958.249999999996
 30
0.0
 11
621.0203631491858
 21
1958.249999999996
 31
0.0
  0
LINE
  5
FA
330
87
100
AcDbEntity
  8
P-SANR-FIXT
100
AcDbLine
 10
621.0203631491858
 20
2041.749999999996
 30
0.0
 11
620.0203631491181
 21
2041.749999999996
 31
0.0
  0
LINE
  5
FB
330
87
100
AcDbEntity
  8
P-SANR-FIXT
100
AcDbLine
 10
621.0203631491858
 20
1958.249999999996
 30
0.0
 11
621.9067964903806
 21
1959.785347584468
 31
0.0
  0
LINE
  5
FC
330
87
100
AcDbEntity
  8
P-SANR-FIXT
100
AcDbLine
 10
622.6080763894572
 20
2038.999999999996
 30
0.0
 11
621.0203631491858
 21
2041.749999999996
 31
0.0
  0
LINE
  5
FD
330
87
100
AcDbEntity
  8
P-SANR-FIXT
100
AcDbLine
 10
790.5203631491859
 20
2034.999999999996
 30
0.0
 11
790.5203631491859
 21
2052.999999999995
 31
0.0
  0
LINE
  5
FE
330
87
100
AcDbEntity
  8
P-SANR-FIXT
100
AcDbLine
 10
761.5203631491858
 20
2052.999999999995
 30
0.0
 11
761.5203631491858
 21
2034.999999999996
 31
0.0
  0
LINE
  5
FF
330
87
100
AcDbEntity
  8
P-SANR-FIXT
100
AcDbLine
 10
729.2703631491885
 20
2032.999999999996
 30
0.0
 11
729.2703631491885
 21
2023.999999999996
 31
0.0
  0
LINE
  5
100
330
87
100
AcDbEntity
  8
P-SANR-FIXT
100
AcDbLine
 10
746.7703631491883
 20
2029.685475150559
 30
0.0
 11
746.7703631491883
 21
2032.999999999996
 31
0.0
  0
LINE
  5
101
330
87
100
AcDbEntity
  8
P-SANR-FIXT
100
AcDbLine
 10
800.0203631491862
 20
1961.499999999995
 30
0.0
 11
803.0203631491859
 21
1961.499999999995
 31
0.0
  0
LINE
  5
102
330
87
100
AcDbEntity
  8
P-SANR-FIXT
100
AcDbLine
 10
803.0203631491859
 20
2038.499999999996
 30
0.0
 11
800.020363149186
 21
2038.499999999996
 31
0.0
  0
LINE
  5
103
330
87
100
AcDbEntity
  8
P-SANR-FIXT
100
AcDbLine
 10
800.0203631491848
 20
2038.749999999995
 30
0.0
 11
800.0203631491849
 21
1961.249999999995
 31
0.0
  0
SPLINE
  5
104
330
87
100
AcDbEntity
  8
P-SANR-FIXT
100
AcDbSpline
210
0.0
220
0.0
230
1.0
 70
     8
 71
     3
 72
     8
 73
     4
 74
     0
 42
0.000000001
 43
0.0000000001
 40
0.071214067385676
 40
0.071214067385676
 40
0.071214067385676
 40
0.071214067385676
 40
0.0833333333333333
 40
0.0833333333333333
 40
0.0833333333333333
 40
0.0833333333333333
 10
730.6164035178304
 20
2004.38222328214
 30
0.0
 10
730.6428526284114
 20
2004.427908526845
 30
0.0
 10
730.6696813005323
 20
2004.473290659076
 30
0.0
 10
730.6968856773512
 20
2004.518369058899
 30
0.0
  0
SPLINE
  5
105
330
87
100
AcDbEntity
  8
P-SANR-FIXT
100
AcDbSpline
210
0.0
220
0.0
230
1.0
 70
     8
 71
     3
 72
     8
 73
     4
 74
     0
 42
0.000000001
 43
0.0000000001
 40
0.159890039510648
 40
0.159890039510648
 40
0.159890039510648
 40
0.159890039510648
 40
0.1666666666666666
 40
0.1666666666666666
 40
0.1666666666666666
 40
0.1666666666666666
 10
731.2557387040116
 20
2005.337963177088
 30
0.0
 10
731.2734920031641
 20
2005.361079456871
 30
0.0
 10
731.2913572003589
 20
2005.384093189132
 30
0.0
 10
731.3093335438257
 20
2005.407004581943
 30
0.0
  0
SPLINE
  5
106
330
87
100
AcDbEntity
  8
P-SANR-FIXT
100
AcDbSpline
210
0.0
220
0.0
230
1.0
 70
     8
 71
     3
 72
     8
 73
     4
 74
     0
 42
0.000000001
 43
0.0000000001
 40
0.2482765860438968
 40
0.2482765860438968
 40
0.2482765860438968
 40
0.2482765860438968
 40
0.25
 40
0.25
 40
0.25
 40
0.25
 10
732.0053338921959
 20
2006.192167579079
 30
0.0
 10
732.0105555253411
 20
2006.197384958212
 30
0.0
 10
732.0157839599864
 20
2006.202595170461
 30
0.0
 10
732.0210191797859
 20
2006.207798237249
 30
0.0
  0
SPLINE
  5
107
330
87
100
AcDbEntity
  8
P-SANR-FIXT
100
AcDbSpline
210
0.0
220
0.0
230
1.0
 70
     8
 71
     3
 72
     8
 73
     4
 74
     0
 42
0.000000001
 43
0.0000000001
 40
0.3333333333333333
 40
0.3333333333333333
 40
0.3333333333333333
 40
0.3333333333333333
 40
0.3366001495533249
 40
0.3366001495533249
 40
0.3366001495533249
 40
0.3366001495533249
 10
732.8261895647394
 20
2006.914861994465
 30
0.0
 10
732.8372966582998
 20
2006.923463422475
 30
0.0
 10
732.8484253106871
 20
2006.932044011136
 30
0.0
 10
732.8595754229243
 20
2006.940603369354
 30
0.0
  0
SPLINE
  5
108
330
87
100
AcDbEntity
  8
P-SANR-FIXT
100
AcDbSpline
210
0.0
220
0.0
230
1.0
 70
     8
 71
     3
 72
     8
 73
     4
 74
     0
 42
0.000000001
 43
0.0000000001
 40
0.4166666666666666
 40
0.4166666666666666
 40
0.4166666666666666
 40
0.4166666666666666
 40
0.4248358412723097
 40
0.4248358412723097
 40
0.4248358412723097
 40
0.4248358412723097
 10
733.717515528543
 20
2007.521371484868
 30
0.0
 10
733.7479089693434
 20
2007.539436627268
 30
0.0
 10
733.7784142840377
 20
2007.557357535485
 30
0.0
 10
733.8090303521084
 20
2007.575122432356
 30
0.0
  0
SPLINE
  5
109
330
87
100
AcDbEntity
  8
P-SANR-FIXT
100
AcDbSpline
210
0.0
220
0.0
230
1.0
 70
     8
 71
     3
 72
     8
 73
     4
 74
     0
 42
0.000000001
 43
0.0000000001
 40
0.5
 40
0.5
 40
0.5
 40
0.5
 40
0.5128802771505919
 40
0.5128802771505919
 40
0.5128802771505919
 40
0.5128802771505919
 10
734.6813764881298
 20
2008.016688016315
 30
0.0
 10
734.7326432755517
 20
2008.039143826311
 30
0.0
 10
734.7841513524588
 20
2008.060902674332
 30
0.0
 10
734.8358890762288
 20
2008.082008703222
 30
0.0
  0
SPLINE
  5
10A
330
87
100
AcDbEntity
  8
P-SANR-FIXT
100
AcDbSpline
210
0.0
220
0.0
230
1.0
 70
     8
 71
     3
 72
     8
 73
     4
 74
     0
 42
0.000000001
 43
0.0000000001
 40
0.5833333333333333
 40
0.5833333333333333
 40
0.5833333333333333
 40
0.5833333333333333
 40
0.6005417450644727
 40
0.6005417450644727
 40
0.6005417450644727
 40
0.6005417450644727
 10
735.7027725420752
 20
2008.390042352546
 30
0.0
 10
735.7747305642378
 20
2008.41136301171
 30
0.0
 10
735.8469955569376
 20
2008.431361994494
 30
0.0
 10
735.919547459769
 20
2008.450278372596
 30
0.0
  0
SPLINE
  5
10B
330
87
100
AcDbEntity
  8
P-SANR-FIXT
100
AcDbSpline
210
0.0
220
0.0
230
1.0
 70
     8
 71
     3
 72
     8
 73
     4
 74
     0
 42
0.000000001
 43
0.0000000001
 40
0.6666666666666666
 40
0.6666666666666666
 40
0.6666666666666666
 40
0.6666666666666666
 40
0.6879438046235076
 40
0.6879438046235076
 40
0.6879438046235076
 40
0.6879438046235076
 10
736.7674806981748
 20
2008.633950953568
 30
0.0
 10
736.8595415933166
 20
2008.649012190835
 30
0.0
 10
736.9520174037319
 20
2008.663978112564
 30
0.0
 10
737.044795047356
 20
2008.678320560852
 30
0.0
  0
SPLINE
  5
10C
330
87
100
AcDbEntity
  8
P-SANR-FIXT
100
AcDbSpline
210
0.0
220
0.0
230
1.0
 70
     8
 71
     3
 72
     8
 73
     4
 74
     0
 42
0.000000001
 43
0.0000000001
 40
0.75
 40
0.75
 40
0.75
 40
0.75
 40
0.7751440442675262
 40
0.7751440442675262
 40
0.7751440442675262
 40
0.7751440442675262
 10
737.8592426088923
 20
2008.742965124632
 30
0.0
 10
737.9696016455556
 20
2008.747105482013
 30
0.0
 10
738.0802113644119
 20
2008.75104834818
 30
0.0
 10
738.1907451603866
 20
2008.753114413914
 30
0.0
  0
SPLINE
  5
10D
330
87
100
AcDbEntity
  8
P-SANR-FIXT
100
AcDbSpline
210
0.0
220
0.0
230
1.0
 70
     8
 71
     3
 72
     8
 73
     4
 74
     0
 42
0.000000001
 43
0.0000000001
 40
0.8333333333333332
 40
0.8333333333333332
 40
0.8333333333333332
 40
0.8333333333333332
 40
0.8626248819765606
 40
0.8626248819765606
 40
0.8626248819765606
 40
0.8626248819765606
 10
738.952881596141
 20
2008.716489855704
 30
0.0
 10
739.0800587170452
 20
2008.705474610442
 30
0.0
 10
739.2062081471339
 20
2008.68703693095
 30
0.0
 10
739.3316606855834
 20
2008.663613851456
 30
0.0
  0
SPLINE
  5
10E
330
87
100
AcDbEntity
  8
P-SANR-FIXT
100
AcDbSpline
210
0.0
220
0.0
230
1.0
 70
     8
 71
     3
 72
     8
 73
     4
 74
     0
 42
0.000000001
 43
0.0000000001
 40
0.9166666666666667
 40
0.9166666666666667
 40
0.9166666666666667
 40
0.9166666666666667
 40
0.9502511620657909
 40
0.9502511620657909
 40
0.9502511620657909
 40
0.9502511620657909
 10
740.027081679358
 20
2008.554761162676
 30
0.0
 10
740.170081858802
 20
2008.523900657216
 30
0.0
 10
740.3123155279271
 20
2008.484892501863
 30
0.0
 10
740.4542725451908
 20
2008.443100241557
 30
0.0
  0
SPLINE
  5
10F
330
87
100
AcDbEntity
  8
P-SANR-FIXT
100
AcDbSpline
210
0.0
220
0.0
230
1.0
 70
     8
 71
     3
 72
    14
 73
    10
 74
     0
 42
0.000000001
 43
0.0000000001
 40
0.0
 40
0.0
 40
0.0
 40
0.0
 40
0.125
 40
0.25
 40
0.375
 40
0.5
 40
0.75
 40
0.875
 40
1.0
 40
1.0
 40
1.0
 40
1.0
 10
741.0848879986232
 20
2022.557234151211
 30
0.0
 10
740.4131509012627
 20
2022.466215638916
 30
0.0
 10
739.0538500596036
 20
2022.338629168428
 30
0.0
 10
736.8994390683878
 20
2022.342084498365
 30
0.0
 10
734.8335077121854
 20
2022.545781896785
 30
0.0
 10
732.3454547189502
 20
2023.007120656212
 30
0.0
 10
730.4549508414579
 20
2023.582355906034
 30
0.0
 10
729.4423997293105
 20
2023.935821329752
 30
0.0
 10
729.2739176795402
 20
2023.999999999995
 30
0.0
 10
729.2703631491873
 20
2023.999999999995
 30
0.0
  0
SPLINE
  5
110
330
87
100
AcDbEntity
  8
P-SANR-FIXT
100
AcDbSpline
210
0.0
220
0.0
230
1.0
 70
     8
 71
     3
 72
     8
 73
     4
 74
     0
 42
0.000000001
 43
0.0000000001
 40
0.5
 40
0.5
 40
0.5
 40
0.5
 40
1.0
 40
1.0
 40
1.0
 40
1.0
 10
740.6919992823077
 20
1991.615989380009
 30
0.0
 10
740.559999490045
 20
1991.576574366873
 30
0.0
 10
740.4269628109582
 20
1991.540246554527
 30
0.0
 10
740.2928892450475
 20
1991.506989710072
 30
0.0
  0
SPLINE
  5
111
330
87
100
AcDbEntity
  8
P-SANR-FIXT
100
AcDbSpline
210
0.0
220
0.0
230
1.0
 70
     8
 71
     3
 72
    27
 73
    23
 74
     0
 42
0.000000001
 43
0.0000000001
 40
-1.0
 40
-1.0
 40
-1.0
 40
-1.0
 40
-0.9166666666666666
 40
-0.875
 40
-0.8333333333333332
 40
-0.7916666666666666
 40
-0.75
 40
-0.7083333333333333
 40
-0.6666666666666666
 40
-0.6458333333333333
 40
-0.625
 40
-0.5833333333333333
 40
-0.5416666666666666
 40
-0.5
 40
-0.4583333333333333
 40
-0.4166666666666666
 40
-0.375
 40
-0.3333333333333333
 40
-0.2916666666666666
 40
-0.25
 40
-0.1666666666666666
 40
0.0
 40
0.0
 40
0.0
 40
0.0
 10
746.7703631491872
 20
2029.685475150559
 30
0.0
 10
746.7703631491872
 20
2029.674961445312
 30
0.0
 10
746.7342472817626
 20
2029.62422487442
 30
0.0
 10
746.6223202031142
 20
2029.485577307521
 30
0.0
 10
746.5087975943784
 20
2029.348225788824
 30
0.0
 10
746.3676578939563
 20
2029.168974189275
 30
0.0
 10
746.2010563383792
 20
2028.949557445427
 30
0.0
 10
746.0118327516227
 20
2028.701659532876
 30
0.0
 10
745.8377396080895
 20
2028.481398688438
 30
0.0
 10
745.6903086739916
 20
2028.297276792281
 30
0.0
 10
745.5378508048453
 20
2028.10260986931
 30
0.0
 10
745.3382589536637
 20
2027.844823968759
 30
0.0
 10
745.0857185879766
 20
2027.517757470264
 30
0.0
 10
744.8203102834121
 20
2027.182835956838
 30
0.0
 10
744.5447087738531
 20
2026.837597690898
 30
0.0
 10
744.2615725370158
 20
2026.476824662021
 30
0.0
 10
743.9705342444887
 20
2026.10673303493
 30
0.0
 10
743.6707282206099
 20
2025.732206627242
 30
0.0
 10
743.3641210398348
 20
2025.352024469842
 30
0.0
 10
742.9498083170121
 20
2024.833125692816
 30
0.0
 10
742.2045378991233
 20
2023.910294716139
 30
0.0
 10
741.5341882635029
 20
2023.104986893174
 30
0.0
 10
741.0848879986232
 20
2022.557234151211
 30
0.0
  0
LINE
  5
112
330
87
100
AcDbEntity
  8
P-SANR-FIXT
100
AcDbLine
 10
741.0848879986233
 20
2008.256485480451
 30
0.0
 11
741.0848879986232
 21
2022.557234151211
 31
0.0
  0
SPLINE
  5
113
330
87
100
AcDbEntity
  8
P-SANR-FIXT
100
AcDbSpline
210
0.0
220
0.0
230
1.0
 70
     8
 71
     3
 72
     8
 73
     4
 74
     0
 42
0.000000001
 43
0.0000000001
 40
-0.9458432834439301
 40
-0.9458432834439301
 40
-0.9458432834439301
 40
-0.9458432834439301
 40
-0.9333333333333333
 40
-0.9333333333333333
 40
-0.9333333333333333
 40
-0.9333333333333333
 10
741.5321456544265
 20
2008.085679863696
 30
0.0
 10
741.5664805748327
 20
2008.071479156038
 30
0.0
 10
741.6007874338975
 20
2008.057033667474
 30
0.0
 10
741.6350633097241
 20
2008.042341678875
 30
0.0
  0
SPLINE
  5
114
330
87
100
AcDbEntity
  8
P-SANR-FIXT
100
AcDbSpline
210
0.0
220
0.0
230
1.0
 70
     8
 71
     3
 72
     8
 73
     4
 74
     0
 42
0.000000001
 43
0.0000000001
 40
-0.8666666666666667
 40
-0.8666666666666667
 40
-0.8666666666666667
 40
-0.8666666666666667
 40
-0.8
 40
-0.8
 40
-0.8
 40
-0.8
 10
742.1798903602913
 20
2007.786242891876
 30
0.0
 10
742.3602099023453
 20
2007.693781868807
 30
0.0
 10
742.5389318878626
 20
2007.594250096078
 30
0.0
 10
742.7150632087282
 20
2007.487767065273
 30
0.0
  0
SPLINE
  5
115
330
87
100
AcDbEntity
  8
P-SANR-FIXT
100
AcDbSpline
210
0.0
220
0.0
230
1.0
 70
     8
 71
     3
 72
     9
 73
     5
 74
     0
 42
0.000000001
 43
0.0000000001
 40
-0.7333333333333334
 40
-0.7333333333333334
 40
-0.7333333333333334
 40
-0.7333333333333334
 40
-0.7
 40
-0.6666666666666668
 40
-0.6666666666666668
 40
-0.6666666666666668
 40
-0.6666666666666668
 10
743.2350225530159
 20
2007.147613612698
 30
0.0
 10
743.3202003045031
 20
2007.087467431388
 30
0.0
 10
743.4890995027233
 20
2006.963633572796
 30
0.0
 10
743.6554702044509
 20
2006.832201016838
 30
0.0
 10
743.7381117597141
 20
2006.764389811328
 30
0.0
  0
SPLINE
  5
116
330
87
100
AcDbEntity
  8
P-SANR-FIXT
100
AcDbSpline
210
0.0
220
0.0
230
1.0
 70
     8
 71
     3
 72
     9
 73
     5
 74
     0
 42
0.000000001
 43
0.0000000001
 40
-0.6
 40
-0.6
 40
-0.6
 40
-0.6
 40
-0.55
 40
-0.5333333333333334
 40
-0.5333333333333334
 40
-0.5333333333333334
 40
-0.5333333333333334
 10
744.2270379850995
 20
2006.331702912877
 30
0.0
 10
744.3471633311157
 20
2006.217126513627
 30
0.0
 10
744.5047567885787
 20
2006.058076996183
 30
0.0
 10
744.6577067388197
 20
2005.891223763861
 30
0.0
 10
744.6956628036272
 20
2005.848994370271
 30
0.0
  0
SPLINE
  5
117
330
87
100
AcDbEntity
  8
P-SANR-FIXT
100
AcDbSpline
210
0.0
220
0.0
230
1.0
 70
     8
 71
     3
 72
     8
 73
     4
 74
     0
 42
0.000000001
 43
0.0000000001
 40
-0.4683863543006694
 40
-0.4683863543006694
 40
-0.4683863543006694
 40
-0.4683863543006694
 40
-0.4666666666666667
 40
-0.4666666666666667
 40
-0.4666666666666667
 40
-0.4666666666666667
 10
745.1269684594195
 20
2005.330184663104
 30
0.0
 10
745.1306658548182
 20
2005.325371177171
 30
0.0
 10
745.1343602686904
 20
2005.320551196145
 30
0.0
 10
745.1380516917159
 20
2005.315724698497
 30
0.0
  0
SPLINE
  5
118
330
87
100
AcDbEntity
  8
P-SANR-FIXT
100
AcDbSpline
210
0.0
220
0.0
230
1.0
 70
     8
 71
     3
 72
    10
 73
     6
 74
     0
 42
0.000000001
 43
0.0000000001
 40
-0.4
 40
-0.4
 40
-0.4
 40
-0.4
 40
-0.375
 40
-0.35
 40
-0.3333333333333334
 40
-0.3333333333333334
 40
-0.3333333333333334
 40
-0.3333333333333334
 10
745.5533448139611
 20
2004.723524665085
 30
0.0
 10
745.6033848523019
 20
2004.645495279615
 30
0.0
 10
745.7018960000643
 20
2004.486428354432
 30
0.0
 10
745.8281629504489
 20
2004.266957666851
 30
0.0
 10
745.9042773545056
 20
2004.125942185367
 30
0.0
 10
745.9342395675642
 20
2004.068923290711
 30
0.0
  0
SPLINE
  5
119
330
87
100
AcDbEntity
  8
P-SANR-FIXT
100
AcDbSpline
210
0.0
220
0.0
230
1.0
 70
     8
 71
     3
 72
     9
 73
     5
 74
     0
 42
0.000000001
 43
0.0000000001
 40
-0.2
 40
-0.2
 40
-0.2
 40
-0.2
 40
-0.15
 40
-0.1333333333333334
 40
-0.1333333333333334
 40
-0.1333333333333334
 40
-0.1333333333333334
 10
746.5465152974926
 20
2002.587445263046
 30
0.0
 10
746.6080014473758
 20
2002.388815967778
 30
0.0
 10
746.6789723062516
 20
2002.116448620114
 30
0.0
 10
746.7445663604393
 20
2001.839243833575
 30
0.0
 10
746.7599430183041
 20
2001.769367946282
 30
0.0
  0
SPLINE
  5
11A
330
87
100
AcDbEntity
  8
P-SANR-FIXT
100
AcDbSpline
210
0.0
220
0.0
230
1.0
 70
     8
 71
     3
 72
     8
 73
     4
 74
     0
 42
0.000000001
 43
0.0000000001
 40
-0.084726380563014
 40
-0.084726380563014
 40
-0.084726380563014
 40
-0.084726380563014
 40
-0.0666666666666668
 40
-0.0666666666666668
 40
-0.0666666666666668
 40
-0.0666666666666668
 10
746.8630207551665
 20
2001.141697559597
 30
0.0
 10
746.8734146836229
 20
2001.06270285055
 30
0.0
 10
746.8810078693491
 20
2000.982555743625
 30
0.0
 10
746.8868990362097
 20
2000.901703618122
 30
0.0
  0
SPLINE
  5
11B
330
87
100
AcDbEntity
  8
P-SANR-FIXT
100
AcDbSpline
210
0.0
220
0.0
230
1.0
 70
     8
 71
     3
 72
     8
 73
     4
 74
     0
 42
0.000000001
 43
0.0000000001
 40
-0.9333333333333333
 40
-0.9333333333333333
 40
-0.9333333333333333
 40
-0.9333333333333333
 40
-0.9152736194369893
 40
-0.9152736194369893
 40
-0.9152736194369893
 40
-0.9152736194369893
 10
746.891073915602
 20
1999.096749934831
 30
0.0
 10
746.8827764546504
 20
1999.01678909153
 30
0.0
 10
746.8734146405396
 20
1998.937297084272
 30
0.0
 10
746.8630207207569
 20
1998.858302388342
 30
0.0
  0
SPLINE
  5
11C
330
87
100
AcDbEntity
  8
P-SANR-FIXT
100
AcDbSpline
210
0.0
220
0.0
230
1.0
 70
     8
 71
     3
 72
     9
 73
     5
 74
     0
 42
0.000000001
 43
0.0000000001
 40
-0.8666666666666667
 40
-0.8666666666666667
 40
-0.8666666666666667
 40
-0.8666666666666667
 40
-0.85
 40
-0.8
 40
-0.8
 40
-0.8
 40
-0.8
 10
746.7573071011833
 20
1998.231789904246
 30
0.0
 10
746.74280910367
 20
1998.161528099007
 30
0.0
 10
746.681608287287
 20
1997.882393626073
 30
0.0
 10
746.608000872086
 20
1997.611183161706
 30
0.0
 10
746.5465152974926
 20
1997.412554736944
 30
0.0
  0
SPLINE
  5
11D
330
87
100
AcDbEntity
  8
P-SANR-FIXT
100
AcDbSpline
210
0.0
220
0.0
230
1.0
 70
     8
 71
     3
 72
     9
 73
     5
 74
     0
 42
0.000000001
 43
0.0000000001
 40
-0.6666666666666668
 40
-0.6666666666666668
 40
-0.6666666666666668
 40
-0.6666666666666668
 40
-0.65
 40
-0.6
 40
-0.6
 40
-0.6
 40
-0.6
 10
745.9342295557909
 20
1995.931115882549
 30
0.0
 10
745.9042756440769
 20
1995.874089627621
 30
0.0
 10
745.7825192101818
 20
1995.648410968735
 30
0.0
 10
745.6534029961515
 20
1995.432500942441
 30
0.0
 10
745.5533448139611
 20
1995.276475334905
 30
0.0
  0
SPLINE
  5
11E
330
87
100
AcDbEntity
  8
P-SANR-FIXT
100
AcDbSpline
210
0.0
220
0.0
230
1.0
 70
     8
 71
     3
 72
     8
 73
     4
 74
     0
 42
0.000000001
 43
0.0000000001
 40
-0.5333333333333334
 40
-0.5333333333333334
 40
-0.5333333333333334
 40
-0.5333333333333334
 40
-0.5316136456993308
 40
-0.5316136456993308
 40
-0.5316136456993308
 40
-0.5316136456993308
 10
745.1380527474076
 20
1994.684276896701
 30
0.0
 10
745.1343613304117
 20
1994.679450409114
 30
0.0
 10
745.1306669195581
 20
1994.674630436374
 30
0.0
 10
745.1269695245279
 20
1994.669816956852
 30
0.0
  0
SPLINE
  5
11F
330
87
100
AcDbEntity
  8
P-SANR-FIXT
100
AcDbSpline
210
0.0
220
0.0
230
1.0
 70
     8
 71
     3
 72
     9
 73
     5
 74
     0
 42
0.000000001
 43
0.0000000001
 40
-0.4666666666666667
 40
-0.4666666666666667
 40
-0.4666666666666667
 40
-0.4666666666666667
 40
-0.45
 40
-0.4
 40
-0.4
 40
-0.4
 40
-0.4
 10
744.6956626004557
 20
1994.151005350778
 30
0.0
 10
744.6577066018805
 20
1994.108776047912
 30
0.0
 10
744.5047576937103
 20
1993.941920658655
 30
0.0
 10
744.347159132779
 20
1993.782889251222
 30
0.0
 10
744.2270379850995
 20
1993.668297087113
 30
0.0
  0
SPLINE
  5
120
330
87
100
AcDbEntity
  8
P-SANR-FIXT
100
AcDbSpline
210
0.0
220
0.0
230
1.0
 70
     8
 71
     3
 72
     9
 73
     5
 74
     0
 42
0.000000001
 43
0.0000000001
 40
-0.3333333333333334
 40
-0.3333333333333334
 40
-0.3333333333333334
 40
-0.3333333333333334
 40
-0.3
 40
-0.2666666666666667
 40
-0.2666666666666667
 40
-0.2666666666666667
 40
-0.2666666666666667
 10
743.7381117655092
 20
1993.235610196523
 30
0.0
 10
743.6554702109218
 20
1993.167798991954
 30
0.0
 10
743.4890651895661
 20
1993.036506822144
 30
0.0
 10
743.3202689243467
 20
1992.912251769901
 30
0.0
 10
743.2350854550462
 20
1992.852128989249
 30
0.0
  0
SPLINE
  5
121
330
87
100
AcDbEntity
  8
P-SANR-FIXT
100
AcDbSpline
210
0.0
220
0.0
230
1.0
 70
     8
 71
     3
 72
     8
 73
     4
 74
     0
 42
0.000000001
 43
0.0000000001
 40
-0.2
 40
-0.2
 40
-0.2
 40
-0.2
 40
-0.1333333333333334
 40
-0.1333333333333334
 40
-0.1333333333333334
 40
-0.1333333333333334
 10
742.7150632087282
 20
1992.512232934717
 30
0.0
 10
742.5389318874732
 20
1992.40574990338
 30
0.0
 10
742.3608194560697
 20
1992.301567012037
 30
0.0
 10
742.1804999141382
 20
1992.209105989154
 30
0.0
  0
SPLINE
  5
122
330
87
100
AcDbEntity
  8
P-SANR-FIXT
100
AcDbSpline
210
0.0
220
0.0
230
1.0
 70
     8
 71
     3
 72
     8
 73
     4
 74
     0
 42
0.000000001
 43
0.0000000001
 40
-0.0666666666666668
 40
-0.0666666666666668
 40
-0.0666666666666668
 40
-0.0666666666666668
 40
-0.0541567165560901
 40
-0.0541567165560901
 40
-0.0541567165560901
 40
-0.0541567165560901
 10
741.6350633097859
 20
1991.957658321207
 30
0.0
 10
741.6007874339592
 20
1991.942966332609
 30
0.0
 10
741.5664452591451
 20
1991.928912494216
 30
0.0
 10
741.5320595881625
 20
1991.915274608316
 30
0.0
  0
LINE
  5
123
330
87
100
AcDbEntity
  8
P-SANR-FIXT
100
AcDbLine
 10
741.0848879986233
 20
1990.563122350168
 30
0.0
 11
741.0848879986233
 21
1991.743514519538
 31
0.0
  0
SPLINE
  5
124
330
87
100
AcDbEntity
  8
P-SANR-FIXT
100
AcDbSpline
210
0.0
220
0.0
230
1.0
 70
     8
 71
     3
 72
    24
 73
    20
 74
     0
 42
0.000000001
 43
0.0000000001
 40
0.0
 40
0.0
 40
0.0
 40
0.0
 40
0.0833333333333333
 40
0.125
 40
0.1666666666666666
 40
0.2083333333333333
 40
0.25
 40
0.2916666666666666
 40
0.3125
 40
0.3333333333333333
 40
0.375
 40
0.4166666666666666
 40
0.4583333333333333
 40
0.5
 40
0.5416666666666666
 40
0.5833333333333333
 40
0.6666666666666666
 40
0.8333333333333332
 40
1.0
 40
1.0
 40
1.0
 40
1.0
 10
743.269024991549
 20
1987.960169242131
 30
0.0
 10
743.5273402629187
 20
1987.624689664414
 30
0.0
 10
743.8923290689502
 20
1987.104523293602
 30
0.0
 10
744.3336285526517
 20
1986.37922650375
 30
0.0
 10
744.6426951478469
 20
1985.82199472842
 30
0.0
 10
744.9267812804358
 20
1985.246307766725
 30
0.0
 10
745.1864229824685
 20
1984.654811089665
 30
0.0
 10
745.3862458718309
 20
1984.15778663065
 30
0.0
 10
745.5377142951747
 20
1983.761570432225
 30
0.0
 10
745.6848125519451
 20
1983.368569973473
 30
0.0
 10
745.8571463351088
 20
1982.879570174915
 30
0.0
 10
746.0446796732928
 20
1982.294633031267
 30
0.0
 10
746.2163353825557
 20
1981.715901737508
 30
0.0
 10
746.3756057098792
 20
1981.146171108824
 30
0.0
 10
746.5213778912564
 20
1980.586632481268
 30
0.0
 10
746.6946635596118
 20
1979.85413502321
 30
0.0
 10
746.9573594957454
 20
1978.612227702721
 30
0.0
 10
747.2164337562816
 20
1976.974267109887
 30
0.0
 10
747.3314288643614
 20
1975.82734497545
 30
0.0
 10
747.3632196440563
 20
1975.302278921924
 30
0.0
  0
SPLINE
  5
125
330
87
100
AcDbEntity
  8
P-SANR-FIXT
100
AcDbSpline
210
0.0
220
0.0
230
1.0
 70
     8
 71
     3
 72
    10
 73
     6
 74
     0
 42
0.000000001
 43
0.0000000001
 40
-1.0
 40
-1.0
 40
-1.0
 40
-1.0
 40
-0.6666666666666666
 40
-0.3333333333333333
 40
0.0
 40
0.0
 40
0.0
 40
0.0
 10
747.3632196440563
 20
1975.302278921924
 30
0.0
 10
747.4453972876773
 20
1974.015603313146
 30
0.0
 10
747.6321580128487
 20
1971.801547460205
 30
0.0
 10
747.8388166580538
 20
1969.674753912562
 30
0.0
 10
747.8948348974114
 20
1969.194682130111
 30
0.0
 10
747.8923178891833
 20
1969.192570109435
 30
0.0
  0
SPLINE
  5
126
330
87
100
AcDbEntity
  8
P-SANR-FIXT
100
AcDbSpline
210
0.0
220
0.0
230
1.0
 70
     8
 71
     3
 72
    26
 73
    22
 74
     0
 42
0.000000001
 43
0.0000000001
 40
0.0
 40
0.0
 40
0.0
 40
0.0
 40
0.1111111111111111
 40
0.2222222222222222
 40
0.2777777777777778
 40
0.3333333333333333
 40
0.3611111111111111
 40
0.3888888888888888
 40
0.4444444444444445
 40
0.4791666666666666
 40
0.5138888888888889
 40
0.5486111111111111
 40
0.5833333333333333
 40
0.6180555555555555
 40
0.6527777777777777
 40
0.6875
 40
0.7222222222222223
 40
0.7569444444444445
 40
0.7916666666666668
 40
0.861111111111111
 40
1.0
 40
1.0
 40
1.0
 40
1.0
 10
790.5203631491844
 20
2034.999999999995
 30
0.0
 10
790.4948514444921
 20
2034.999999999995
 30
0.0
 10
789.9183411815494
 20
2034.739456631037
 30
0.0
 10
787.7636966912174
 20
2033.92259484711
 30
0.0
 10
785.3960982519246
 20
2033.190231888072
 30
0.0
 10
783.6780190382831
 20
2032.747439423864
 30
0.0
 10
782.2034741968315
 20
2032.446275773345
 30
0.0
 10
780.6221653773055
 20
2032.172089345845
 30
0.0
 10
778.885101869479
 20
2031.959432803075
 30
0.0
 10
777.0006282231328
 20
2031.861517820512
 30
0.0
 10
775.37004124753
 20
2031.853479567303
 30
0.0
 10
773.776741057394
 20
2031.920987656231
 30
0.0
 10
772.2481283409619
 20
2032.066055179782
 30
0.0
 10
770.7179093259574
 20
2032.286239441383
 30
0.0
 10
769.2654662616518
 20
2032.555668422185
 30
0.0
 10
767.93949689574
 20
2032.854397059569
 30
0.0
 10
766.6767574171512
 20
2033.191004166052
 30
0.0
 10
765.5227850188059
 20
2033.535202843593
 30
0.0
 10
764.1872336251311
 20
2033.973073128183
 30
0.0
 10
762.2175856740375
 20
2034.694931313831
 30
0.0
 10
761.5517840074415
 20
2034.999999999995
 30
0.0
 10
761.5203631491846
 20
2034.999999999995
 30
0.0
  0
LINE
  5
127
330
87
100
AcDbEntity
  8
P-SANR-FIXT
100
AcDbLine
 10
791.9198244891625
 20
1964.999999999995
 30
0.0
 11
791.9198244891622
 21
2034.999999999995
 31
0.0
  0
LINE
  5
128
330
87
100
AcDbEntity
  8
P-SANR-FIXT
100
AcDbLine
 10
794.0848879986235
 20
1961.249999999995
 30
0.0
 11
794.0848879986234
 21
2038.749999999995
 31
0.0
  0
LINE
  5
129
330
87
100
AcDbEntity
  8
P-SANR-FIXT
100
AcDbLine
 10
643.2262688974475
 20
1903.885602744668
 30
0.0
 11
622.894262692468
 21
1928.116344184099
 31
0.0
  0
LINE
  5
12A
330
87
100
AcDbEntity
  8
P-SANR-FIXT
100
AcDbLine
 10
665.6333882824386
 20
1894.294799813382
 30
0.0
 11
617.4721593259942
 21
1951.691117445976
 31
0.0
  0
SPLINE
  5
12B
330
87
100
AcDbEntity
  8
P-SANR-FIXT
100
AcDbSpline
210
0.0
220
0.0
230
1.0
 70
     8
 71
     3
 72
    15
 73
    11
 74
     0
 42
0.000000001
 43
0.0000000001
 40
0.0
 40
0.0
 40
0.0
 40
0.0
 40
0.3333333333333333
 40
0.4166666666666666
 40
0.5
 40
0.5833333333333333
 40
0.6666666666666666
 40
0.75
 40
0.8333333333333332
 40
1.0
 40
1.0
 40
1.0
 40
1.0
 10
666.5339807677124
 20
1976.452740220625
 30
0.0
 10
666.4135378595886
 20
1975.817813579356
 30
0.0
 10
666.1815373373079
 20
1975.033245377451
 30
0.0
 10
665.7805461818064
 20
1974.094681015815
 30
0.0
 10
665.5561707533739
 20
1973.623736894634
 30
0.0
 10
665.3042075053483
 20
1973.161983924478
 30
0.0
 10
665.0212792289545
 20
1972.719089122173
 30
0.0
 10
664.7065999948404
 20
1972.296879998079
 30
0.0
 10
664.2475396798232
 20
1971.752491731278
 30
0.0
 10
663.8577228072781
 20
1971.367969305274
 30
0.0
 10
663.5776152728364
 20
1971.122006300894
 30
0.0
  0
LINE
  5
12C
330
87
100
AcDbEntity
  8
P-SANR-FIXT
100
AcDbLine
 10
663.5776152728364
 20
1971.122006300894
 30
0.0
 11
656.5232936048509
 21
1965.202727591081
 31
0.0
  0
SPLINE
  5
12D
330
87
100
AcDbEntity
  8
P-SANR-FIXT
100
AcDbSpline
210
0.0
220
0.0
230
1.0
 70
     8
 71
     3
 72
    23
 73
    19
 74
     0
 42
0.000000001
 43
0.0000000001
 40
0.0
 40
0.0
 40
0.0
 40
0.0
 40
0.0714285714285714
 40
0.1071428571428571
 40
0.1428571428571428
 40
0.1785714285714286
 40
0.2142857142857143
 40
0.25
 40
0.2857142857142857
 40
0.3214285714285714
 40
0.3571428571428571
 40
0.4285714285714286
 40
0.5714285714285714
 40
0.6428571428571428
 40
0.7142857142857143
 40
0.7857142857142856
 40
0.8571428571428571
 40
1.0
 40
1.0
 40
1.0
 40
1.0
 10
656.5232936048507
 20
1965.202727591081
 30
0.0
 10
655.5608367751466
 20
1964.448273632458
 30
0.0
 10
654.0859156431636
 20
1963.423977228852
 30
0.0
 10
652.0578142786177
 20
1962.270963966842
 30
0.0
 10
650.5127150646657
 20
1961.506407558202
 30
0.0
 10
648.9257523017563
 20
1960.855770606865
 30
0.0
 10
647.3046354143363
 20
1960.311383343693
 30
0.0
 10
645.6796721235074
 20
1959.847525715772
 30
0.0
 10
644.0821393100346
 20
1959.437362800779
 30
0.0
 10
642.5108740651561
 20
1959.083678074243
 30
0.0
 10
640.4310281521026
 20
1958.70055369631
 30
0.0
 10
636.9111412314037
 20
1958.179512735167
 30
0.0
 10
633.2158345040757
 20
1957.828002585535
 30
0.0
 10
630.0148585063567
 20
1957.613813003461
 30
0.0
 10
627.9299439751536
 20
1957.509826437734
 30
0.0
 10
626.2074708719575
 20
1957.445079744086
 30
0.0
 10
624.4784014102067
 20
1957.383629240231
 30
0.0
 10
623.9463309468297
 20
1957.391742811285
 30
0.0
 10
623.9281032669176
 20
1957.376447971794
 30
0.0
  0
SPLINE
  5
12E
330
87
100
AcDbEntity
  8
P-SANR-FIXT
100
AcDbSpline
210
0.0
220
0.0
230
1.0
 70
     8
 71
     3
 72
     9
 73
     5
 74
     0
 42
0.000000001
 43
0.0000000001
 40
-1.0
 40
-1.0
 40
-1.0
 40
-1.0
 40
-0.5
 40
0.0
 40
0.0
 40
0.0
 40
0.0
 10
669.3886668325947
 20
1977.717829327654
 30
0.0
 10
669.1816307159129
 20
1977.354267133147
 30
0.0
 10
668.4733879785889
 20
1976.758522134307
 30
0.0
 10
667.2539774608078
 20
1976.490291942511
 30
0.0
 10
666.5339807677124
 20
1976.452740220624
 30
0.0
  0
LINE
  5
12F
330
87
100
AcDbEntity
  8
P-SANR-FIXT
100
AcDbLine
 10
706.6167659893036
 20
1928.683936931611
 30
0.0
 11
666.5339807677126
 21
1976.452740220624
 31
0.0
  0
LINE
  5
130
330
87
100
AcDbEntity
  8
P-SANR-FIXT
100
AcDbLine
 10
699.0209471600039
 20
2016.300334566575
 30
0.0
 11
665.7937716827238
 21
1988.419423878526
 31
0.0
  0
LWPOLYLINE
  5
131
330
87
100
AcDbEntity
  8
P-SANR-FIXT
100
AcDbPolyline
 90
        4
 70
   128
 43
0.0
 10
665.7937716827238
 20
1988.419423878526
 10
665.7850722558871
 20
1986.798165466106
 10
666.6344686647598
 20
1984.24113996357
 10
668.3121120756269
 20
1980.845476636002
  0
SPLINE
  5
132
330
87
100
AcDbEntity
  8
P-SANR-FIXT
100
AcDbSpline
210
0.0
220
0.0
230
1.0
 70
     8
 71
     3
 72
     9
 73
     5
 74
     0
 42
0.000000001
 43
0.0000000001
 40
0.0
 40
0.0
 40
0.0
 40
0.0
 40
0.5
 40
1.0
 40
1.0
 40
1.0
 40
1.0
 10
668.3121120756269
 20
1980.845476636002
 30
0.0
 10
668.5502490504769
 20
1980.403942814442
 30
0.0
 10
668.9703298001403
 20
1979.438133627413
 30
0.0
 10
669.270411618642
 20
1978.315913613841
 30
0.0
 10
669.3886668325949
 20
1977.717829327654
 30
0.0
  0
LINE
  5
133
330
87
100
AcDbEntity
  8
P-SANR-FIXT
100
AcDbLine
 10
706.986536489601
 20
1932.910433090028
 30
0.0
 11
669.3886668325949
 21
1977.717829327654
 31
0.0
  0
LINE
  5
134
330
87
100
AcDbEntity
  8
P-SANR-FIXT
100
AcDbLine
 10
743.3736475377523
 20
1963.442844550139
 30
0.0
 11
699.0209471600039
 21
2016.300334566575
 31
0.0
  0
LINE
  5
135
330
87
100
AcDbEntity
  8
P-SANR-FIXT
100
AcDbLine
 10
702.197604299791
 20
2016.999999999995
 30
0.0
 11
699.9889473965258
 21
2015.146716807068
 31
0.0
  0
SPLINE
  5
136
330
87
100
AcDbEntity
  8
P-SANR-FIXT
100
AcDbSpline
210
0.0
220
0.0
230
1.0
 70
     8
 71
     3
 72
     8
 73
     4
 74
     0
 42
0.000000001
 43
0.0000000001
 40
-0.8333333333333332
 40
-0.8333333333333332
 40
-0.8333333333333332
 40
-0.8333333333333332
 40
-0.8268744433975925
 40
-0.8268744433975925
 40
-0.8268744433975925
 40
-0.8268744433975925
 10
739.4038628311395
 20
1991.334911245717
 30
0.0
 10
739.3815669283303
 20
1991.331785246078
 30
0.0
 10
739.358891291563
 20
1991.32869444479
 30
0.0
 10
739.3358675467238
 20
1991.325650116601
 30
0.0
  0
SPLINE
  5
137
330
87
100
AcDbEntity
  8
P-SANR-FIXT
100
AcDbSpline
210
0.0
220
0.0
230
1.0
 70
     8
 71
     3
 72
     8
 73
     4
 74
     0
 42
0.000000001
 43
0.0000000001
 40
-0.7369966033663058
 40
-0.7369966033663058
 40
-0.7369966033663058
 40
-0.7369966033663058
 40
-0.7222222222222222
 40
-0.7222222222222222
 40
-0.7222222222222222
 40
-0.7222222222222222
 10
738.202450895589
 20
1991.250024080328
 30
0.0
 10
738.1302057360121
 20
1991.249902726642
 30
0.0
 10
738.0564020397985
 20
1991.25066663228
 30
0.0
 10
737.9814136228997
 20
1991.25243505569
 30
0.0
  0
SPLINE
  5
138
330
87
100
AcDbEntity
  8
P-SANR-FIXT
100
AcDbSpline
210
0.0
220
0.0
230
1.0
 70
     8
 71
     3
 72
     8
 73
     4
 74
     0
 42
0.000000001
 43
0.0000000001
 40
-0.6666666666666666
 40
-0.6666666666666666
 40
-0.6666666666666666
 40
-0.6666666666666666
 40
-0.6634201430364675
 40
-0.6634201430364675
 40
-0.6634201430364675
 40
-0.6634201430364675
 10
737.100851667519
 20
1991.317777990099
 30
0.0
 10
737.0832166237009
 20
1991.319985195452
 30
0.0
 10
737.0655580659999
 20
1991.322249696609
 30
0.0
 10
737.0478676508245
 20
1991.324573591069
 30
0.0
  0
SPLINE
  5
139
330
87
100
AcDbEntity
  8
P-SANR-FIXT
100
AcDbSpline
210
0.0
220
0.0
230
1.0
 70
     8
 71
     3
 72
     8
 73
     4
 74
     0
 42
0.000000001
 43
0.0000000001
 40
-0.6111111111111112
 40
-0.6111111111111112
 40
-0.6111111111111112
 40
-0.6111111111111112
 40
-0.5976216788571352
 40
-0.5976216788571352
 40
-0.5976216788571352
 40
-0.5976216788571352
 10
736.1601545590722
 20
1991.488182683427
 30
0.0
 10
736.0818647674499
 20
1991.506833645638
 30
0.0
 10
736.0033071170176
 20
1991.52669588093
 30
0.0
 10
735.9246662813547
 20
1991.547752944389
 30
0.0
  0
SPLINE
  5
13A
330
87
100
AcDbEntity
  8
P-SANR-FIXT
100
AcDbSpline
210
0.0
220
0.0
230
1.0
 70
     8
 71
     3
 72
     9
 73
     5
 74
     0
 42
0.000000001
 43
0.0000000001
 40
-0.5555555555555556
 40
-0.5555555555555556
 40
-0.5555555555555556
 40
-0.5555555555555556
 40
-0.5416666666666668
 40
-0.5350111158427183
 40
-0.5350111158427183
 40
-0.5350111158427183
 40
-0.5350111158427183
 10
735.1923534541453
 20
1991.778709176126
 30
0.0
 10
735.1125630892743
 20
1991.807780850244
 30
0.0
 10
734.9948414943639
 20
1991.852612709342
 30
0.0
 10
734.876973231971
 20
1991.90046821583
 30
0.0
 10
734.8387988865702
 20
1991.916283523913
 30
0.0
  0
SPLINE
  5
13B
330
87
100
AcDbEntity
  8
P-SANR-FIXT
100
AcDbSpline
210
0.0
220
0.0
230
1.0
 70
     8
 71
     3
 72
    10
 73
     6
 74
     0
 42
0.000000001
 43
0.0000000001
 40
-0.5
 40
-0.5
 40
-0.5
 40
-0.5
 40
-0.4722222222222223
 40
-0.4444444444444445
 40
-0.3888888888888888
 40
-0.3888888888888888
 40
-0.3888888888888888
 40
-0.3888888888888888
 10
734.2399013829491
 20
1992.191263675081
 30
0.0
 10
734.0829575963483
 20
1992.270616897717
 30
0.0
 10
733.7720807827172
 20
1992.439729450026
 30
0.0
 10
733.1717871084845
 20
1992.815184225389
 30
0.0
 10
732.7455374568804
 20
1993.139087139369
 30
0.0
 10
732.4745968627771
 20
1993.372672335068
 30
0.0
  0
SPLINE
  5
13C
330
87
100
AcDbEntity
  8
P-SANR-FIXT
100
AcDbSpline
210
0.0
220
0.0
230
1.0
 70
     8
 71
     3
 72
     8
 73
     4
 74
     0
 42
0.000000001
 43
0.0000000001
 40
-0.3547262096642363
 40
-0.3547262096642363
 40
-0.3547262096642363
 40
-0.3547262096642363
 40
-0.3333333333333333
 40
-0.3333333333333333
 40
-0.3333333333333333
 40
-0.3333333333333333
 10
731.9904674841593
 20
1993.823042503768
 30
0.0
 10
731.8928335718137
 20
1993.920993313358
 30
0.0
 10
731.797432108831
 20
1994.021338781542
 30
0.0
 10
731.7044340133534
 20
1994.123939925944
 30
0.0
  0
SPLINE
  5
13D
330
87
100
AcDbEntity
  8
P-SANR-FIXT
100
AcDbSpline
210
0.0
220
0.0
230
1.0
 70
     8
 71
     3
 72
     8
 73
     4
 74
     0
 42
0.000000001
 43
0.0000000001
 40
-0.297124817540687
 40
-0.297124817540687
 40
-0.297124817540687
 40
-0.297124817540687
 40
-0.2777777777777778
 40
-0.2777777777777778
 40
-0.2777777777777778
 40
-0.2777777777777778
 10
731.2533592949231
 20
1994.663740268608
 30
0.0
 10
731.176871462218
 20
1994.763137265143
 30
0.0
 10
731.1024891951444
 20
1994.864220489312
 30
0.0
 10
731.030284607398
 20
1994.966904527062
 30
0.0
  0
SPLINE
  5
13E
330
87
100
AcDbEntity
  8
P-SANR-FIXT
100
AcDbSpline
210
0.0
220
0.0
230
1.0
 70
     8
 71
     3
 72
     8
 73
     4
 74
     0
 42
0.000000001
 43
0.0000000001
 40
-0.2381268453465783
 40
-0.2381268453465783
 40
-0.2381268453465783
 40
-0.2381268453465783
 40
-0.2222222222222222
 40
-0.2222222222222222
 40
-0.2222222222222222
 40
-0.2222222222222222
 10
730.6143638862454
 20
1995.617651928497
 30
0.0
 10
730.5625728388778
 20
1995.707152076177
 30
0.0
 10
730.5123414727903
 20
1995.797610030287
 30
0.0
 10
730.4637120717107
 20
1995.888977159081
 30
0.0
  0
SPLINE
  5
13F
330
87
100
AcDbEntity
  8
P-SANR-FIXT
100
AcDbSpline
210
0.0
220
0.0
230
1.0
 70
     8
 71
     3
 72
     8
 73
     4
 74
     0
 42
0.000000001
 43
0.0000000001
 40
-0.1793185175357409
 40
-0.1793185175357409
 40
-0.1793185175357409
 40
-0.1793185175357409
 40
-0.1666666666666666
 40
-0.1666666666666666
 40
-0.1666666666666666
 40
-0.1666666666666666
 10
730.1054915220203
 20
1996.647655215411
 30
0.0
 10
730.0738238453078
 20
1996.724001985965
 30
0.0
 10
730.0432197908772
 20
1996.800796552459
 30
0.0
 10
730.0137641103282
 20
1996.877956793604
 30
0.0
  0
SPLINE
  5
140
330
87
100
AcDbEntity
  8
P-SANR-FIXT
100
AcDbSpline
210
0.0
220
0.0
230
1.0
 70
     8
 71
     3
 72
     8
 73
     4
 74
     0
 42
0.000000001
 43
0.0000000001
 40
-0.1204472626571629
 40
-0.1204472626571629
 40
-0.1204472626571629
 40
-0.1204472626571629
 40
-0.1111111111111111
 40
-0.1111111111111111
 40
-0.1111111111111111
 40
-0.1111111111111111
 10
729.7362768728675
 20
1997.734226778409
 30
0.0
 10
729.72068885346
 20
1997.792371488034
 30
0.0
 10
729.7056412590372
 20
1997.850580321915
 30
0.0
 10
729.6913867917758
 20
1997.908837635462
 30
0.0
  0
SPLINE
  5
141
330
87
100
AcDbEntity
  8
P-SANR-FIXT
100
AcDbSpline
210
0.0
220
0.0
230
1.0
 70
     8
 71
     3
 72
     8
 73
     4
 74
     0
 42
0.000000001
 43
0.0000000001
 40
-0.0606213283816733
 40
-0.0606213283816733
 40
-0.0606213283816733
 40
-0.0606213283816733
 40
-0.0555555555555556
 40
-0.0555555555555556
 40
-0.0555555555555556
 40
-0.0555555555555556
 10
729.5126505904211
 20
1998.858179009176
 30
0.0
 10
729.5084570500844
 20
1998.890037441647
 30
0.0
 10
729.5042812430328
 20
1998.921907999601
 30
0.0
 10
729.5006040268457
 20
1998.953762799829
 30
0.0
  0
SPLINE
  5
142
330
87
100
AcDbEntity
  8
P-SANR-FIXT
100
AcDbSpline
210
0.0
220
0.0
230
1.0
 70
     8
 71
     3
 72
     8
 73
     4
 74
     0
 42
0.000000001
 43
0.0000000001
 40
-0.8027064649595097
 40
-0.8027064649595097
 40
-0.8027064649595097
 40
-0.8027064649595097
 40
-0.8
 40
-0.8
 40
-0.8
 40
-0.8
 10
729.5127990929975
 20
2001.143072658122
 30
0.0
 10
729.5134429352508
 20
2001.14795719371
 30
0.0
 10
729.5140904815692
 20
2001.15283772259
 30
0.0
 10
729.5147417202488
 20
2001.15771430043
 30
0.0
  0
SPLINE
  5
143
330
87
100
AcDbEntity
  8
P-SANR-FIXT
100
AcDbSpline
210
0.0
220
0.0
230
1.0
 70
     8
 71
     3
 72
     8
 73
     4
 74
     0
 42
0.000000001
 43
0.0000000001
 40
-0.6
 40
-0.6
 40
-0.6
 40
-0.6
 40
-0.5709672717620727
 40
-0.5709672717620727
 40
-0.5709672717620727
 40
-0.5709672717620727
 10
729.7073032774167
 20
2002.154866736821
 30
0.0
 10
729.7181423676473
 20
2002.197542783434
 30
0.0
 10
729.7290854673367
 20
2002.239267388878
 30
0.0
 10
729.7401363216279
 20
2002.280190218508
 30
0.0
  0
SPLINE
  5
144
330
87
100
AcDbEntity
  8
P-SANR-FIXT
100
AcDbSpline
210
0.0
220
0.0
230
1.0
 70
     8
 71
     3
 72
     9
 73
     5
 74
     0
 42
0.000000001
 43
0.0000000001
 40
-0.2159633528174683
 40
-0.2159633528174683
 40
-0.2159633528174683
 40
-0.2159633528174683
 40
-0.2
 40
0.0
 40
0.0
 40
0.0
 40
0.0
 10
730.1085497189184
 20
2003.359673259792
 30
0.0
 10
730.112368289487
 20
2003.368867515066
 30
0.0
 10
730.162330130053
 20
2003.48863237033
 30
0.0
 10
730.1879525202735
 20
2003.544640973079
 30
0.0
 10
730.18938697049
 20
2003.54787484356
 30
0.0
  0
LINE
  5
145
330
87
100
AcDbEntity
  8
P-SANR-FIXT
100
AcDbLine
 10
645.8996790332366
 20
1992.189750324088
 30
0.0
 11
643.9652966086992
 21
1992.189750324088
 31
0.0
  0
ARC
  5
146
330
87
100
AcDbEntity
  8
P-SANR-FIXT
100
AcDbCircle
 10
640.0203631491846
 20
1999.999999999995
 30
0.0
 40
8.750000000000007
100
AcDbArc
 50
290.0986518859184
 51
292.5385810711784
  0
ARC
  5
147
330
87
100
AcDbEntity
  8
P-SANR-FIXT
100
AcDbCircle
 10
640.0203631491846
 20
1999.999999999995
 30
0.0
 40
8.749999999999968
100
AcDbArc
 50
283.3991012572802
 51
285.020715902165
  0
ARC
  5
148
330
87
100
AcDbEntity
  8
P-SANR-FIXT
100
AcDbCircle
 10
640.0203631491846
 20
1999.999999999995
 30
0.0
 40
8.74999999999995
100
AcDbArc
 50
276.6995506286404
 51
277.5066919650453
  0
ARC
  5
149
330
87
100
AcDbEntity
  8
P-SANR-FIXT
100
AcDbCircle
 10
640.0203631491846
 20
1999.999999999995
 30
0.0
 40
8.749999999999948
100
AcDbArc
 50
262.4933080349554
 51
263.3004493713618
  0
ARC
  5
14A
330
87
100
AcDbEntity
  8
P-SANR-FIXT
100
AcDbCircle
 10
640.0203631491846
 20
1999.999999999995
 30
0.0
 40
8.749999999999957
100
AcDbArc
 50
254.9792840978351
 51
256.6008987427221
  0
ARC
  5
14B
330
87
100
AcDbEntity
  8
P-SANR-FIXT
100
AcDbCircle
 10
640.0203631491846
 20
1999.999999999995
 30
0.0
 40
8.749999999999978
100
AcDbArc
 50
247.461418928823
 51
249.9013481140823
  0
LINE
  5
14C
330
87
100
AcDbEntity
  8
P-SANR-FIXT
100
AcDbLine
 10
636.0754296896701
 20
1992.189750324088
 30
0.0
 11
633.8784927830119
 21
1992.189750324088
 31
0.0
  0
SPLINE
  5
14D
330
87
100
AcDbEntity
  8
P-SANR-FIXT
100
AcDbSpline
210
0.0
220
0.0
230
1.0
 70
     8
 71
     3
 72
    23
 73
    19
 74
     0
 42
0.000000001
 43
0.0000000001
 40
0.0
 40
0.0
 40
0.0
 40
0.0
 40
0.1
 40
0.15
 40
0.2
 40
0.25
 40
0.3
 40
0.35
 40
0.4
 40
0.425
 40
0.45
 40
0.5
 40
0.55
 40
0.6
 40
0.65
 40
0.7
 40
0.8
 40
1.0
 40
1.0
 40
1.0
 40
1.0
 10
652.5145076851877
 20
1999.67232842269
 30
0.0
 10
652.4518886448376
 20
1999.63894889895
 30
0.0
 10
652.3529029372586
 20
1999.52917338602
 30
0.0
 10
652.2193095034797
 20
1999.268933463745
 30
0.0
 10
652.1189603415246
 20
1999.020552417122
 30
0.0
 10
652.0261025173855
 20
1998.712633718657
 30
0.0
 10
651.9414242755531
 20
1998.348358064859
 30
0.0
 10
651.8596281701776
 20
1997.940691471798
 30
0.0
 10
651.7893115685124
 20
1997.576142022175
 30
0.0
 10
651.7334753812747
 20
1997.271181351344
 30
0.0
 10
651.6820347952815
 20
1996.952702099457
 30
0.0
 10
651.6223214567627
 20
1996.534664491838
 30
0.0
 10
651.5550073754816
 20
1996.007595167081
 30
0.0
 10
651.4845054530996
 20
1995.46486042225
 30
0.0
 10
651.4154884002048
 20
1994.906789991051
 30
0.0
 10
651.3350204628491
 20
1994.137815992972
 30
0.0
 10
651.1979835129609
 20
1992.748467777574
 30
0.0
 10
651.0792575026766
 20
1991.504594049798
 30
0.0
 10
651.0203631491847
 20
1990.657552284596
 30
0.0
  0
SPLINE
  5
14E
330
87
100
AcDbEntity
  8
P-SANR-FIXT
100
AcDbSpline
210
0.0
220
0.0
230
1.0
 70
     8
 71
     3
 72
     9
 73
     5
 74
     0
 42
0.000000001
 43
0.0000000001
 40
0.0
 40
0.0
 40
0.0
 40
0.0
 40
0.5
 40
1.0
 40
1.0
 40
1.0
 40
1.0
 10
651.0203631491847
 20
1990.657552284596
 30
0.0
 10
650.2207233498848
 20
1991.070547601115
 30
0.0
 10
648.5695365261157
 20
1991.740503822232
 30
0.0
 10
646.8058921232907
 20
1992.091138773387
 30
0.0
 10
645.8996790332366
 20
1992.189750324088
 30
0.0
  0
LINE
  5
14F
330
87
100
AcDbEntity
  8
P-SANR-FIXT
100
AcDbLine
 10
665.7937716827238
 20
1988.419423878526
 30
0.0
 11
664.08066440033
 21
1990.461025636818
 31
0.0
  0
SPLINE
  5
150
330
87
100
AcDbEntity
  8
P-SANR-FIXT
100
AcDbSpline
210
0.0
220
0.0
230
1.0
 70
     8
 71
     3
 72
    22
 73
    18
 74
     0
 42
0.000000001
 43
0.0000000001
 40
0.0
 40
0.0
 40
0.0
 40
0.0
 40
0.125
 40
0.1875
 40
0.25
 40
0.3125
 40
0.375
 40
0.4375
 40
0.5
 40
0.53125
 40
0.5625
 40
0.625
 40
0.6875
 40
0.75
 40
0.8125
 40
0.875
 40
1.0
 40
1.0
 40
1.0
 40
1.0
 10
664.08066440033
 20
1990.461025636818
 30
0.0
 10
663.9510359973318
 20
1990.36969300173
 30
0.0
 10
663.6766475426447
 20
1990.339849009654
 30
0.0
 10
663.1480011642685
 20
1990.517296861237
 30
0.0
 10
662.6759256379175
 20
1990.753142830626
 30
0.0
 10
662.1050321283529
 20
1991.115188239946
 30
0.0
 10
661.4400327108789
 20
1991.598630851616
 30
0.0
 10
660.7127696839611
 20
1992.171541803555
 30
0.0
 10
660.0820798912113
 20
1992.695463686098
 30
0.0
 10
659.5638168525773
 20
1993.142713983509
 30
0.0
 10
659.0222932642442
 20
1993.623905371523
 30
0.0
 10
658.3156172658934
 20
1994.272785130062
 30
0.0
 10
657.4345496602648
 20
1995.108519452345
 30
0.0
 10
656.5435199054735
 20
1995.972329386832
 30
0.0
 10
655.6451471050967
 20
1996.860887418674
 30
0.0
 10
654.4171148913514
 20
1998.104360616621
 30
0.0
 10
653.4678543090246
 20
1999.095798776535
 30
0.0
 10
652.8218265534786
 20
1999.783709781399
 30
0.0
  0
LWPOLYLINE
  5
151
330
87
100
AcDbEntity
  8
P-SANR-FIXT
100
AcDbPolyline
 90
        3
 70
   128
 43
0.0
 10
652.8218265534786
 20
1999.783709781399
 10
652.6681740899443
 20
1999.72801064236
 10
652.5145076851877
 20
1999.67232842269
  0
SPLINE
  5
152
330
87
100
AcDbEntity
  8
P-SANR-FIXT
100
AcDbSpline
210
0.0
220
0.0
230
1.0
 70
     8
 71
     3
 72
     9
 73
     5
 74
     0
 42
0.000000001
 43
0.0000000001
 40
0.0
 40
0.0
 40
0.0
 40
0.0
 40
0.5
 40
1.0
 40
1.0
 40
1.0
 40
1.0
 10
633.8784927830117
 20
1992.189750324088
 30
0.0
 10
632.5810553814306
 20
1992.193032775528
 30
0.0
 10
630.1672726296361
 20
1991.778422623253
 30
0.0
 10
628.1369388960746
 20
1990.539305743421
 30
0.0
 10
627.2268785429731
 20
1989.721377476035
 30
0.0
  0
SPLINE
  5
153
330
87
100
AcDbEntity
  8
P-SANR-FIXT
100
AcDbSpline
210
0.0
220
0.0
230
1.0
 70
     8
 71
     3
 72
    16
 73
    12
 74
     0
 42
0.000000001
 43
0.0000000001
 40
0.0
 40
0.0
 40
0.0
 40
0.0
 40
0.1666666666666666
 40
0.3333333333333333
 40
0.4166666666666666
 40
0.5
 40
0.5833333333333333
 40
0.6666666666666666
 40
0.75
 40
0.8333333333333332
 40
1.0
 40
1.0
 40
1.0
 40
1.0
 10
627.2268785429731
 20
1989.721377476035
 30
0.0
 10
626.9786624567977
 20
1987.22931556282
 30
0.0
 10
626.331375646703
 20
1982.326089018444
 30
0.0
 10
625.3440811547734
 20
1976.495670647105
 30
0.0
 10
624.5410132628794
 20
1972.216133103237
 30
0.0
 10
623.9471879874259
 20
1969.247525247895
 30
0.0
 10
623.3912193885297
 20
1966.559193013001
 30
0.0
 10
622.8928079422224
 20
1964.22860474833
 30
0.0
 10
622.467816668979
 20
1962.310616361222
 30
0.0
 10
622.0504516211639
 20
1960.392249090968
 30
0.0
 10
621.8938771245634
 20
1959.800744285093
 30
0.0
 10
621.9067964903797
 20
1959.785347584467
 30
0.0
  0
LINE
  5
154
330
87
100
AcDbEntity
  8
P-SANR-FIXT
100
AcDbLine
 10
622.0457822501685
 20
2038.999999999995
 30
0.0
 11
660.0203631491845
 21
2038.999999999995
 31
0.0
  0
SPLINE
  5
155
330
87
100
AcDbEntity
  8
P-SANR-FIXT
100
AcDbSpline
210
0.0
220
0.0
230
1.0
 70
     8
 71
     3
 72
    11
 73
     7
 74
     0
 42
0.000000001
 43
0.0000000001
 40
0.0
 40
0.0
 40
0.0
 40
0.0
 40
0.3333333333333333
 40
0.5
 40
0.6666666666666666
 40
1.0
 40
1.0
 40
1.0
 40
1.0
 10
622.0457822501685
 20
2038.999999999995
 30
0.0
 10
622.5369510160686
 20
2037.775982451613
 30
0.0
 10
623.3933777679633
 20
2035.830468315785
 30
0.0
 10
624.5758029242826
 20
2032.939640543574
 30
0.0
 10
625.7668878614619
 20
2029.928773452999
 30
0.0
 10
626.6650408910538
 20
2027.623141362073
 30
0.0
 10
627.2268785429731
 20
2026.039005858595
 30
0.0
  0
SPLINE
  5
156
330
87
100
AcDbEntity
  8
P-SANR-FIXT
100
AcDbSpline
210
0.0
220
0.0
230
1.0
 70
     8
 71
     3
 72
    21
 73
    17
 74
     0
 42
0.000000001
 43
0.0000000001
 40
-1.0
 40
-1.0
 40
-1.0
 40
-1.0
 40
-0.85
 40
-0.8125
 40
-0.775
 40
-0.7
 40
-0.625
 40
-0.60625
 40
-0.5875
 40
-0.55
 40
-0.475
 40
-0.4
 40
-0.3
 40
-0.2
 40
-0.1
 40
0.0
 40
0.0
 40
0.0
 40
0.0
 10
627.2268785429731
 20
2026.039005858595
 30
0.0
 10
628.1790789051468
 20
2025.518381856923
 30
0.0
 10
629.4498241743305
 20
2024.89369283333
 30
0.0
 10
631.0945598972048
 20
2024.227506524331
 30
0.0
 10
632.2244494055024
 20
2023.805801002066
 30
0.0
 10
633.7141748084827
 20
2023.303211476112
 30
0.0
 10
635.1127839036017
 20
2022.937948113407
 30
0.0
 10
636.0567355651641
 20
2022.75269576277
 30
0.0
 10
636.6890445595871
 20
2022.646038554571
 30
0.0
 10
637.8263845894504
 20
2022.489374002078
 30
0.0
 10
639.50582020622
 20
2022.366021184885
 30
0.0
 10
641.7025725007238
 20
2022.39500792484
 30
0.0
 10
644.0825418747225
 20
2022.737037158502
 30
0.0
 10
646.5941276226442
 20
2023.36752903032
 30
0.0
 10
648.8890594263714
 20
2024.154561589322
 30
0.0
 10
650.3280589117811
 20
2024.798679609232
 30
0.0
 10
651.0203631491847
 20
2025.140135359065
 30
0.0
  0
SPLINE
  5
157
330
87
100
AcDbEntity
  8
P-SANR-FIXT
100
AcDbSpline
210
0.0
220
0.0
230
1.0
 70
     8
 71
     3
 72
     9
 73
     5
 74
     0
 42
0.000000001
 43
0.0000000001
 40
0.015258788531186
 40
0.015258788531186
 40
0.015258788531186
 40
0.015258788531186
 40
0.5
 40
1.0
 40
1.0
 40
1.0
 40
1.0
 10
651.0750937630579
 20
2024.750913141346
 30
0.0
 10
651.6504544155042
 20
2020.629688860438
 30
0.0
 10
652.5479963437426
 20
2012.282013978619
 30
0.0
 10
652.849076361748
 20
2003.984115326499
 30
0.0
 10
652.8218265534786
 20
1999.783709781399
 30
0.0
  0
LWPOLYLINE
  5
158
330
87
100
AcDbEntity
  8
P-SANR-FIXT
100
AcDbPolyline
 90
        3
 70
   128
 43
0.0
 10
664.08066440033
 20
1990.461025636818
 10
662.9102835370723
 20
2003.730557212452
 10
661.7388964506224
 20
2016.999999999995
  0
LINE
  5
159
330
87
100
AcDbEntity
  8
P-SANR-FIXT
100
AcDbLine
 10
621.0203631491847
 20
1958.249999999995
 30
0.0
 11
621.0203631491847
 21
2041.749999999995
 31
0.0
  0
LINE
  5
15A
330
87
100
AcDbEntity
  8
P-SANR-FIXT
100
AcDbLine
 10
627.2268785429731
 20
1989.721377476035
 30
0.0
 11
627.2268785429731
 21
2026.039005858595
 31
0.0
  0
SPLINE
  5
15B
330
87
100
AcDbEntity
  8
P-SANR-FIXT
100
AcDbSpline
210
0.0
220
0.0
230
1.0
 70
     8
 71
     3
 72
     8
 73
     4
 74
     0
 42
0.000000001
 43
0.0000000001
 40
0.0
 40
0.0
 40
0.0
 40
0.0
 40
0.1
 40
0.1
 40
0.1
 40
0.1
 10
636.0754296896701
 20
1992.189750324088
 30
0.0
 10
635.7844302626951
 20
1992.338183233145
 30
0.0
 10
635.5036474559629
 20
1992.50082162598
 30
0.0
 10
635.2338702375933
 20
1992.677061720854
 30
0.0
  0
SPLINE
  5
15C
330
87
100
AcDbEntity
  8
P-SANR-FIXT
100
AcDbSpline
210
0.0
220
0.0
230
1.0
 70
     8
 71
     3
 72
     8
 73
     4
 74
     0
 42
0.000000001
 43
0.0000000001
 40
0.1702940089013232
 40
0.1702940089013232
 40
0.1702940089013232
 40
0.1702940089013232
 40
0.2
 40
0.2
 40
0.2
 40
0.2
 10
634.6815470135961
 20
1993.068673500798
 30
0.0
 10
634.6061190964555
 20
1993.126619229331
 30
0.0
 10
634.5322528200107
 20
1993.186004260086
 30
0.0
 10
634.459758776427
 20
1993.246705501455
 30
0.0
  0
SPLINE
  5
15D
330
87
100
AcDbEntity
  8
P-SANR-FIXT
100
AcDbSpline
210
0.0
220
0.0
230
1.0
 70
     8
 71
     3
 72
     8
 73
     4
 74
     0
 42
0.000000001
 43
0.0000000001
 40
0.2892044682083545
 40
0.2892044682083545
 40
0.2892044682083545
 40
0.2892044682083545
 40
0.3
 40
0.3
 40
0.3
 40
0.3
 10
633.8261169334599
 20
1993.819410055368
 30
0.0
 10
633.8017938754859
 20
1993.843759238391
 30
0.0
 10
633.7776977943508
 20
1993.868290392991
 30
0.0
 10
633.7538059130524
 20
1993.89299201238
 30
0.0
  0
SPLINE
  5
15E
330
87
100
AcDbEntity
  8
P-SANR-FIXT
100
AcDbSpline
210
0.0
220
0.0
230
1.0
 70
     8
 71
     3
 72
     8
 73
     4
 74
     0
 42
0.000000001
 43
0.0000000001
 40
0.4
 40
0.4
 40
0.4
 40
0.4
 40
0.407491479537326
 40
0.407491479537326
 40
0.407491479537326
 40
0.407491479537326
 10
633.1243282972877
 20
1994.614166422783
 30
0.0
 10
633.1095968290452
 20
1994.633076136107
 30
0.0
 10
633.0948498642934
 20
1994.652017297831
 30
0.0
 10
633.0800947154878
 20
1994.670991596023
 30
0.0
  0
SPLINE
  5
15F
330
87
100
AcDbEntity
  8
P-SANR-FIXT
100
AcDbSpline
210
0.0
220
0.0
230
1.0
 70
     8
 71
     3
 72
     8
 73
     4
 74
     0
 42
0.000000001
 43
0.0000000001
 40
0.5
 40
0.5
 40
0.5
 40
0.5
 40
0.5260948593676856
 40
0.5260948593676856
 40
0.5260948593676856
 40
0.5260948593676856
 10
632.5757755892083
 20
1995.404614519908
 30
0.0
 10
632.531769413934
 20
1995.476068820087
 30
0.0
 10
632.4876707852975
 20
1995.547839558039
 30
0.0
 10
632.4439282335322
 20
1995.620020651766
 30
0.0
  0
SPLINE
  5
160
330
87
100
AcDbEntity
  8
P-SANR-FIXT
100
AcDbSpline
210
0.0
220
0.0
230
1.0
 70
     8
 71
     3
 72
     8
 73
     4
 74
     0
 42
0.000000001
 43
0.0000000001
 40
0.6
 40
0.6
 40
0.6
 40
0.6
 40
0.7
 40
0.7
 40
0.7
 40
0.7
 10
632.1150102720995
 20
1996.25277403194
 30
0.0
 10
631.9768922242963
 20
1996.54366457999
 30
0.0
 10
631.8416577191101
 20
1996.838901913166
 30
0.0
 10
631.7495847806023
 20
1997.145614232876
 30
0.0
  0
SPLINE
  5
161
330
87
100
AcDbEntity
  8
P-SANR-FIXT
100
AcDbSpline
210
0.0
220
0.0
230
1.0
 70
     8
 71
     3
 72
     8
 73
     4
 74
     0
 42
0.000000001
 43
0.0000000001
 40
0.7633625341901418
 40
0.7633625341901418
 40
0.7633625341901418
 40
0.7633625341901418
 40
0.8
 40
0.8
 40
0.8
 40
0.8
 10
631.5705293432747
 20
1997.728903432238
 30
0.0
 10
631.5400118206224
 20
1997.842476458957
 30
0.0
 10
631.5157565553136
 20
1997.95754430662
 30
0.0
 10
631.4959354687007
 20
1998.073674048193
 30
0.0
  0
SPLINE
  5
162
330
87
100
AcDbEntity
  8
P-SANR-FIXT
100
AcDbSpline
210
0.0
220
0.0
230
1.0
 70
     8
 71
     3
 72
     8
 73
     4
 74
     0
 42
0.000000001
 43
0.0000000001
 40
0.8822745811670026
 40
0.8822745811670026
 40
0.8822745811670026
 40
0.8822745811670026
 40
0.9
 40
0.9
 40
0.9
 40
0.9
 10
631.3466905706031
 20
1998.853806256319
 30
0.0
 10
631.3392217925471
 20
1998.910583175479
 30
0.0
 10
631.333231717236
 20
1998.967662240261
 30
0.0
 10
631.3282998403864
 20
1999.024957907164
 30
0.0
  0
SPLINE
  5
163
330
87
100
AcDbEntity
  8
P-SANR-FIXT
100
AcDbSpline
210
0.0
220
0.0
230
1.0
 70
     8
 71
     3
 72
     8
 73
     4
 74
     0
 42
0.000000001
 43
0.0000000001
 40
0.037037037037037
 40
0.037037037037037
 40
0.037037037037037
 40
0.037037037037037
 40
0.0407179483760746
 40
0.0407179483760746
 40
0.0407179483760746
 40
0.0407179483760746
 10
631.3382350777798
 20
2001.042424724001
 30
0.0
 10
631.3422881248584
 20
2001.076273270258
 30
0.0
 10
631.3465185825714
 20
2001.110050182737
 30
0.0
 10
631.3509258736761
 20
2001.143754404675
 30
0.0
  0
SPLINE
  5
164
330
87
100
AcDbEntity
  8
P-SANR-FIXT
100
AcDbSpline
210
0.0
220
0.0
230
1.0
 70
     8
 71
     3
 72
     8
 73
     4
 74
     0
 42
0.000000001
 43
0.0000000001
 40
0.0740740740740741
 40
0.0740740740740741
 40
0.0740740740740741
 40
0.0740740740740741
 40
0.0826059739131182
 40
0.0826059739131182
 40
0.0826059739131182
 40
0.0826059739131182
 10
631.5141697251024
 20
2002.04179424546
 30
0.0
 10
631.5318394358331
 20
2002.116873164998
 30
0.0
 10
631.5504934994248
 20
2002.191607528927
 30
0.0
 10
631.570153480942
 20
2002.266029064598
 30
0.0
  0
SPLINE
  5
165
330
87
100
AcDbEntity
  8
P-SANR-FIXT
100
AcDbSpline
210
0.0
220
0.0
230
1.0
 70
     8
 71
     3
 72
     8
 73
     4
 74
     0
 42
0.000000001
 43
0.0000000001
 40
0.1111111111111111
 40
0.1111111111111111
 40
0.1111111111111111
 40
0.1111111111111111
 40
0.1248989477977044
 40
0.1248989477977044
 40
0.1248989477977044
 40
0.1248989477977044
 10
631.8016952812866
 20
2003.002665228951
 30
0.0
 10
631.8447177402089
 20
2003.120127217281
 30
0.0
 10
631.8905553795462
 20
2003.237049064068
 30
0.0
 10
631.9390518996527
 20
2003.353199229447
 30
0.0
  0
SPLINE
  5
166
330
87
100
AcDbEntity
  8
P-SANR-FIXT
100
AcDbSpline
210
0.0
220
0.0
230
1.0
 70
     8
 71
     3
 72
     9
 73
     5
 74
     0
 42
0.000000001
 43
0.0000000001
 40
0.1481481481481481
 40
0.1481481481481481
 40
0.1481481481481481
 40
0.1481481481481481
 40
0.1666666666666666
 40
0.1851851851851852
 40
0.1851851851851852
 40
0.1851851851851852
 40
0.1851851851851852
 10
632.2063086576273
 20
2003.933067761812
 30
0.0
 10
632.2828911595703
 20
2004.084690117774
 30
0.0
 10
632.4446981795905
 20
2004.383742116879
 30
0.0
 10
632.6222744480976
 20
2004.672164699428
 30
0.0
 10
632.7150096084268
 20
2004.813527675558
 30
0.0
  0
SPLINE
  5
167
330
87
100
AcDbEntity
  8
P-SANR-FIXT
100
AcDbSpline
210
0.0
220
0.0
230
1.0
 70
     8
 71
     3
 72
     8
 73
     4
 74
     0
 42
0.000000001
 43
0.0000000001
 40
0.2085126241646964
 40
0.2085126241646964
 40
0.2085126241646964
 40
0.2085126241646964
 40
0.2222222222222222
 40
0.2222222222222222
 40
0.2222222222222222
 40
0.2222222222222222
 10
633.0842587932511
 20
2005.333803962934
 30
0.0
 10
633.1602795855689
 20
2005.432920747413
 30
0.0
 10
633.238466880104
 20
2005.530344602884
 30
0.0
 10
633.3188225949394
 20
2005.625998062544
 30
0.0
  0
SPLINE
  5
168
330
87
100
AcDbEntity
  8
P-SANR-FIXT
100
AcDbSpline
210
0.0
220
0.0
230
1.0
 70
     8
 71
     3
 72
     8
 73
     4
 74
     0
 42
0.000000001
 43
0.0000000001
 40
0.2505480349034552
 40
0.2505480349034552
 40
0.2505480349034552
 40
0.2505480349034552
 40
0.2592592592592593
 40
0.2592592592592593
 40
0.2592592592592593
 40
0.2592592592592593
 10
633.8434978720437
 20
2006.195788507886
 30
0.0
 10
633.8998901931121
 20
2006.251785749737
 30
0.0
 10
633.9570472565347
 20
2006.307027161272
 30
0.0
 10
634.0149349993009
 20
2006.361500113786
 30
0.0
  0
SPLINE
  5
169
330
87
100
AcDbEntity
  8
P-SANR-FIXT
100
AcDbSpline
210
0.0
220
0.0
230
1.0
 70
     8
 71
     3
 72
     8
 73
     4
 74
     0
 42
0.000000001
 43
0.0000000001
 40
0.2915841009375203
 40
0.2915841009375203
 40
0.2915841009375203
 40
0.2915841009375203
 40
0.2962962962962963
 40
0.2962962962962963
 40
0.2962962962962963
 40
0.2962962962962963
 10
634.6878969845651
 20
2006.935445637482
 30
0.0
 10
634.7219259206115
 20
2006.961710338894
 30
0.0
 10
634.7561439223055
 20
2006.987728769582
 30
0.0
 10
634.7905497796794
 20
2007.013496305438
 30
0.0
  0
SPLINE
  5
16A
330
87
100
AcDbEntity
  8
P-SANR-FIXT
100
AcDbSpline
210
0.0
220
0.0
230
1.0
 70
     8
 71
     3
 72
     8
 73
     4
 74
     0
 42
0.000000001
 43
0.0000000001
 40
0.3703703703703703
 40
0.3703703703703703
 40
0.3703703703703703
 40
0.3703703703703703
 40
0.3754337611243058
 40
0.3754337611243058
 40
0.3754337611243058
 40
0.3754337611243058
 10
636.5451333071737
 20
2008.027254346425
 30
0.0
 10
636.5877836155722
 20
2008.045586680152
 30
0.0
 10
636.6305817656216
 20
2008.063593032608
 30
0.0
 10
636.6735197992419
 20
2008.081274151124
 30
0.0
  0
SPLINE
  5
16B
330
87
100
AcDbEntity
  8
P-SANR-FIXT
100
AcDbSpline
210
0.0
220
0.0
230
1.0
 70
     8
 71
     3
 72
     8
 73
     4
 74
     0
 42
0.000000001
 43
0.0000000001
 40
0.4074074074074074
 40
0.4074074074074074
 40
0.4074074074074074
 40
0.4074074074074074
 40
0.4167882688353996
 40
0.4167882688353996
 40
0.4167882688353996
 40
0.4167882688353996
 10
637.5018967656595
 20
2008.377170053558
 30
0.0
 10
637.5842476996194
 20
2008.402201128371
 30
0.0
 10
637.6669642384841
 20
2008.426044428748
 30
0.0
 10
637.7500253331788
 20
2008.448660580343
 30
0.0
  0
SPLINE
  5
16C
330
87
100
AcDbEntity
  8
P-SANR-FIXT
100
AcDbSpline
210
0.0
220
0.0
230
1.0
 70
     8
 71
     3
 72
     8
 73
     4
 74
     0
 42
0.000000001
 43
0.0000000001
 40
0.4444444444444445
 40
0.4444444444444445
 40
0.4444444444444445
 40
0.4444444444444445
 40
0.4585696547635911
 40
0.4585696547635911
 40
0.4585696547635911
 40
0.4585696547635911
 10
638.4930995818461
 20
2008.615681400551
 30
0.0
 10
638.6209509682601
 20
2008.638323533929
 30
0.0
 10
638.7494433751611
 20
2008.657920633268
 30
0.0
 10
638.8784176591806
 20
2008.674546081088
 30
0.0
  0
SPLINE
  5
16D
330
87
100
AcDbEntity
  8
P-SANR-FIXT
100
AcDbSpline
210
0.0
220
0.0
230
1.0
 70
     8
 71
     3
 72
     9
 73
     5
 74
     0
 42
0.000000001
 43
0.0000000001
 40
0.4814814814814815
 40
0.4814814814814815
 40
0.4814814814814815
 40
0.4814814814814815
 40
0.5138888888888889
 40
0.5185185185185186
 40
0.5185185185185186
 40
0.5185185185185186
 40
0.5185185185185186
 10
639.5091367457029
 20
2008.732288561594
 30
0.0
 10
639.807664226936
 20
2008.748753163683
 30
0.0
 10
640.150203412607
 20
2008.750429051733
 30
0.0
 10
640.4917598652501
 20
2008.733643628376
 30
0.0
 10
640.5344267473013
 20
2008.731253034189
 30
0.0
  0
SPLINE
  5
16E
330
87
100
AcDbEntity
  8
P-SANR-FIXT
100
AcDbSpline
210
0.0
220
0.0
230
1.0
 70
     8
 71
     3
 72
     9
 73
     5
 74
     0
 42
0.000000001
 43
0.0000000001
 40
0.5415165038222906
 40
0.5415165038222906
 40
0.5415165038222906
 40
0.5415165038222906
 40
0.5486111111111111
 40
0.5555555555555556
 40
0.5555555555555556
 40
0.5555555555555556
 40
0.5555555555555556
 10
641.166741147932
 20
2008.673515549526
 30
0.0
 10
641.231234110532
 20
2008.665246377493
 30
0.0
 10
641.3584301669263
 20
2008.647421630858
 30
0.0
 10
641.4846446913742
 20
2008.626678323556
 30
0.0
 10
641.5468746605479
 20
2008.61570464055
 30
0.0
  0
SPLINE
  5
16F
330
87
100
AcDbEntity
  8
P-SANR-FIXT
100
AcDbSpline
210
0.0
220
0.0
230
1.0
 70
     8
 71
     3
 72
     9
 73
     5
 74
     0
 42
0.000000001
 43
0.0000000001
 40
0.5832810141535623
 40
0.5832810141535623
 40
0.5832810141535623
 40
0.5832810141535623
 40
0.5833333333333333
 40
0.5925925925925926
 40
0.5925925925925926
 40
0.5925925925925926
 40
0.5925925925925926
 10
642.2849634180074
 20
2008.450247353512
 30
0.0
 10
642.2854249047288
 20
2008.450122169314
 30
0.0
 10
642.3675583653431
 20
2008.427835386857
 30
0.0
 10
642.4495899125069
 20
2008.404269293593
 30
0.0
 10
642.5309815946011
 20
2008.379607034452
 30
0.0
  0
SPLINE
  5
170
330
87
100
AcDbEntity
  8
P-SANR-FIXT
100
AcDbSpline
210
0.0
220
0.0
230
1.0
 70
     8
 71
     3
 72
     8
 73
     4
 74
     0
 42
0.000000001
 43
0.0000000001
 40
0.6246068812207302
 40
0.6246068812207302
 40
0.6246068812207302
 40
0.6246068812207302
 40
0.6296296296296296
 40
0.6296296296296296
 40
0.6296296296296296
 40
0.6296296296296296
 10
643.366425545139
 20
2008.081910801676
 30
0.0
 10
643.409417137145
 20
2008.064174654912
 30
0.0
 10
643.4522547069036
 20
2008.046097940627
 30
0.0
 10
643.4949308938233
 20
2008.027689861404
 30
0.0
  0
SPLINE
  5
171
330
87
100
AcDbEntity
  8
P-SANR-FIXT
100
AcDbSpline
210
0.0
220
0.0
230
1.0
 70
     8
 71
     3
 72
     8
 73
     4
 74
     0
 42
0.000000001
 43
0.0000000001
 40
0.7037037037037035
 40
0.7037037037037035
 40
0.7037037037037035
 40
0.7037037037037035
 40
0.708485115873475
 40
0.708485115873475
 40
0.708485115873475
 40
0.708485115873475
 10
645.2511911057256
 20
2007.012648760667
 30
0.0
 10
645.2858958538493
 20
2006.986709502657
 30
0.0
 10
645.320443362921
 20
2006.960544330382
 30
0.0
 10
645.3548005299658
 20
2006.93413698729
 30
0.0
  0
SPLINE
  5
172
330
87
100
AcDbEntity
  8
P-SANR-FIXT
100
AcDbSpline
210
0.0
220
0.0
230
1.0
 70
     8
 71
     3
 72
     8
 73
     4
 74
     0
 42
0.000000001
 43
0.0000000001
 40
0.7407407407407405
 40
0.7407407407407405
 40
0.7407407407407405
 40
0.7407407407407405
 40
0.7495681529517113
 40
0.7495681529517113
 40
0.7495681529517113
 40
0.7495681529517113
 10
646.0215148394724
 20
2006.365914346726
 30
0.0
 10
646.0797877134524
 20
2006.311096343019
 30
0.0
 10
646.1369721112003
 20
2006.255280534201
 30
0.0
 10
646.1932391582033
 20
2006.198564007147
 30
0.0
  0
SPLINE
  5
173
330
87
100
AcDbEntity
  8
P-SANR-FIXT
100
AcDbSpline
210
0.0
220
0.0
230
1.0
 70
     8
 71
     3
 72
     8
 73
     4
 74
     0
 42
0.000000001
 43
0.0000000001
 40
0.7777777777777775
 40
0.7777777777777775
 40
0.7777777777777775
 40
0.7777777777777775
 40
0.7916147505058563
 40
0.7916147505058563
 40
0.7916147505058563
 40
0.7916147505058563
 10
646.7154395349988
 20
2005.633036803063
 30
0.0
 10
646.7967482614934
 20
2005.536444434763
 30
0.0
 10
646.8750034339611
 20
2005.437417145276
 30
0.0
 10
646.9533500292913
 20
2005.337309230885
 30
0.0
  0
SPLINE
  5
174
330
87
100
AcDbEntity
  8
P-SANR-FIXT
100
AcDbSpline
210
0.0
220
0.0
230
1.0
 70
     8
 71
     3
 72
     8
 73
     4
 74
     0
 42
0.000000001
 43
0.0000000001
 40
0.8148148148148145
 40
0.8148148148148145
 40
0.8148148148148145
 40
0.8148148148148145
 40
0.8518518518518513
 40
0.8518518518518513
 40
0.8518518518518513
 40
0.8518518518518513
 10
647.3242096730231
 20
2004.81596536404
 30
0.0
 10
647.5117334920855
 20
2004.530852670791
 30
0.0
 10
647.6979617451128
 20
2004.239514087045
 30
0.0
 10
647.8448742923754
 20
2003.93432865578
 30
0.0
  0
SPLINE
  5
175
330
87
100
AcDbEntity
  8
P-SANR-FIXT
100
AcDbSpline
210
0.0
220
0.0
230
1.0
 70
     8
 71
     3
 72
     8
 73
     4
 74
     0
 42
0.000000001
 43
0.0000000001
 40
0.8751381521542914
 40
0.8751381521542914
 40
0.8751381521542914
 40
0.8751381521542914
 40
0.8888888888888883
 40
0.8888888888888883
 40
0.8888888888888883
 40
0.8888888888888883
 10
648.1018965948181
 20
2003.352359381113
 30
0.0
 10
648.1498075064028
 20
2003.237071216864
 30
0.0
 10
648.190571431678
 20
2003.119391311893
 30
0.0
 10
648.225699237654
 20
2002.999826994877
 30
0.0
  0
SPLINE
  5
176
330
87
100
AcDbEntity
  8
P-SANR-FIXT
100
AcDbSpline
210
0.0
220
0.0
230
1.0
 70
     8
 71
     3
 72
     8
 73
     4
 74
     0
 42
0.000000001
 43
0.0000000001
 40
0.917404211219291
 40
0.917404211219291
 40
0.917404211219291
 40
0.917404211219291
 40
0.9259259259259254
 40
0.9259259259259254
 40
0.9259259259259254
 40
0.9259259259259254
 10
648.4699417795003
 20
2002.266204569334
 30
0.0
 10
648.4897478308493
 20
2002.191616145079
 30
0.0
 10
648.5068250063578
 20
2002.116059536965
 30
0.0
 10
648.5217153978606
 20
2002.039727464793
 30
0.0
  0
SPLINE
  5
177
330
87
100
AcDbEntity
  8
P-SANR-FIXT
100
AcDbSpline
210
0.0
220
0.0
230
1.0
 70
     8
 71
     3
 72
     8
 73
     4
 74
     0
 42
0.000000001
 43
0.0000000001
 40
0.9592820367482774
 40
0.9592820367482774
 40
0.9592820367482774
 40
0.9592820367482774
 40
0.9629629629629622
 40
0.9629629629629622
 40
0.9629629629629622
 40
0.9629629629629622
 10
648.6907331205672
 20
2001.142115451395
 30
0.0
 10
648.6951274865991
 20
2001.108446871121
 30
0.0
 10
648.6990136104143
 20
2001.074587582296
 30
0.0
 10
648.7024804212548
 20
2001.040570982187
 30
0.0
  0
SPLINE
  5
178
330
87
100
AcDbEntity
  8
P-SANR-FIXT
100
AcDbSpline
210
0.0
220
0.0
230
1.0
 70
     8
 71
     3
 72
     8
 73
     4
 74
     0
 42
0.000000001
 43
0.0000000001
 40
0.1
 40
0.1
 40
0.1
 40
0.1
 40
0.1177254188329816
 40
0.1177254188329816
 40
0.1177254188329816
 40
0.1177254188329816
 10
648.7155682159205
 20
1999.027166108918
 30
0.0
 10
648.7092599123734
 20
1998.970379145162
 30
0.0
 10
648.7024770752935
 20
1998.913658193617
 30
0.0
 10
648.6951796954225
 20
1998.857025868472
 30
0.0
  0
SPLINE
  5
179
330
87
100
AcDbEntity
  8
P-SANR-FIXT
100
AcDbSpline
210
0.0
220
0.0
230
1.0
 70
     8
 71
     3
 72
     8
 73
     4
 74
     0
 42
0.000000001
 43
0.0000000001
 40
0.2
 40
0.2
 40
0.2
 40
0.2
 40
0.2366374658098514
 40
0.2366374658098514
 40
0.2366374658098514
 40
0.2366374658098514
 10
648.5563069536052
 20
1998.076419128865
 30
0.0
 10
648.5304144652772
 20
1997.961491909838
 30
0.0
 10
648.5014169374917
 20
1997.847542322498
 30
0.0
 10
648.4697556599527
 20
1997.734380943264
 30
0.0
  0
SPLINE
  5
17A
330
87
100
AcDbEntity
  8
P-SANR-FIXT
100
AcDbSpline
210
0.0
220
0.0
230
1.0
 70
     8
 71
     3
 72
     8
 73
     4
 74
     0
 42
0.000000001
 43
0.0000000001
 40
0.3
 40
0.3
 40
0.3
 40
0.3
 40
0.4
 40
0.4
 40
0.4
 40
0.4
 10
648.2920573101361
 20
1997.146931251757
 30
0.0
 10
648.1868240668561
 20
1996.841817364589
 30
0.0
 10
648.0597737157924
 20
1996.546887671199
 30
0.0
 10
647.9264736502324
 20
1996.250877870053
 30
0.0
  0
SPLINE
  5
17B
330
87
100
AcDbEntity
  8
P-SANR-FIXT
100
AcDbSpline
210
0.0
220
0.0
230
1.0
 70
     8
 71
     3
 72
     8
 73
     4
 74
     0
 42
0.000000001
 43
0.0000000001
 40
0.4739051406323095
 40
0.4739051406323095
 40
0.4739051406323095
 40
0.4739051406323095
 40
0.5
 40
0.5
 40
0.5
 40
0.5
 10
647.5941509331081
 20
1995.618778260702
 30
0.0
 10
647.5520594764796
 20
1995.546102141884
 30
0.0
 10
647.5097277068432
 20
1995.473249503902
 30
0.0
 10
647.4669063052608
 20
1995.400528478241
 30
0.0
  0
SPLINE
  5
17C
330
87
100
AcDbEntity
  8
P-SANR-FIXT
100
AcDbSpline
210
0.0
220
0.0
230
1.0
 70
     8
 71
     3
 72
     8
 73
     4
 74
     0
 42
0.000000001
 43
0.0000000001
 40
0.5925085204626529
 40
0.5925085204626529
 40
0.5925085204626529
 40
0.5925085204626529
 40
0.6
 40
0.6
 40
0.6
 40
0.6
 10
646.9586770932423
 20
1994.669668993087
 30
0.0
 10
646.9440486618464
 20
1994.650621783661
 30
0.0
 10
646.9294088665535
 20
1994.631565451366
 30
0.0
 10
646.9147447785421
 20
1994.612515647292
 30
0.0
  0
SPLINE
  5
17D
330
87
100
AcDbEntity
  8
P-SANR-FIXT
100
AcDbSpline
210
0.0
220
0.0
230
1.0
 70
     8
 71
     3
 72
     8
 73
     4
 74
     0
 42
0.000000001
 43
0.0000000001
 40
0.7
 40
0.7
 40
0.7
 40
0.7
 40
0.7107955317916455
 40
0.7107955317916455
 40
0.7107955317916455
 40
0.7107955317916455
 10
646.2837777431428
 20
1993.890372075193
 30
0.0
 10
646.2597262496778
 20
1993.865707570948
 30
0.0
 10
646.2352790892599
 20
1993.841492769696
 30
0.0
 10
646.210464374234
 20
1993.817695694099
 30
0.0
  0
SPLINE
  5
17E
330
87
100
AcDbEntity
  8
P-SANR-FIXT
100
AcDbSpline
210
0.0
220
0.0
230
1.0
 70
     8
 71
     3
 72
     8
 73
     4
 74
     0
 42
0.000000001
 43
0.0000000001
 40
0.8
 40
0.8
 40
0.8
 40
0.8
 40
0.8297059910986767
 40
0.8297059910986767
 40
0.8297059910986767
 40
0.8297059910986767
 10
645.5796347430708
 20
1993.243799329205
 30
0.0
 10
645.506415749633
 20
1993.183654700196
 30
0.0
 10
645.4305106305136
 20
1993.12670981094
 30
0.0
 10
645.3526724127685
 20
1993.072065622568
 30
0.0
  0
SPLINE
  5
17F
330
87
100
AcDbEntity
  8
P-SANR-FIXT
100
AcDbSpline
210
0.0
220
0.0
230
1.0
 70
     8
 71
     3
 72
     8
 73
     4
 74
     0
 42
0.000000001
 43
0.0000000001
 40
0.9
 40
0.9
 40
0.9
 40
0.9
 40
1.0
 40
1.0
 40
1.0
 40
1.0
 10
644.8058560879218
 20
1992.676249763358
 30
0.0
 10
644.5366411304709
 20
1992.500462321037
 30
0.0
 10
644.2562960356743
 20
1992.338183233145
 30
0.0
 10
643.9652966086992
 20
1992.189750324088
 30
0.0
  0
LINE
  5
180
330
87
100
AcDbEntity
  8
P-SANR-FIXT
100
AcDbLine
 10
651.0203631491847
 20
1990.657552284596
 30
0.0
 11
651.0203631491847
 21
2025.140135359065
 31
0.0
  0
LINE
  5
181
330
87
100
AcDbEntity
  8
P-SANR-FIXT
100
AcDbLine
 10
661.7388964506223
 20
2016.999999999995
 30
0.0
 11
702.197604299791
 21
2016.999999999995
 31
0.0
  0
ARC
  5
182
330
87
100
AcDbEntity
  8
P-SANR-FIXT
100
AcDbCircle
 10
738.1878295747996
 20
1999.999999999995
 30
0.0
 40
8.750000000001932
100
AcDbArc
 50
180.0
 51
0.0
  0
ARC
  5
183
330
87
100
AcDbEntity
  8
P-SANR-FIXT
100
AcDbCircle
 10
738.1878295747996
 20
1999.999999999995
 30
0.0
 40
8.750000000001932
100
AcDbArc
 50
0.0
 51
180.0
  0
ARC
  5
184
330
87
100
AcDbEntity
  8
P-SANR-FIXT
100
AcDbCircle
 10
640.0203631491846
 20
1999.999999999995
 30
0.0
 40
8.75000000000025
100
AcDbArc
 50
359.9999999999992
 51
179.9999999999981
  0
ARC
  5
185
330
87
100
AcDbEntity
  8
P-SANR-FIXT
100
AcDbCircle
 10
640.0203631491846
 20
1999.999999999995
 30
0.0
 40
8.749999999999861
100
AcDbArc
 50
180.0000000000004
 51
0.0000000000004071
  0
LINE
  5
186
330
87
100
AcDbEntity
  8
P-SANR-FIXT
100
AcDbLine
 10
761.5203631491846
 20
2052.999999999995
 30
0.0
 11
790.5203631491844
 21
2052.999999999995
 31
0.0
  0
LINE
  5
187
330
87
100
AcDbEntity
  8
P-SANR-FIXT
100
AcDbLine
 10
729.2703631491873
 20
2032.999999999995
 30
0.0
 11
746.7703631491872
 21
2032.999999999995
 31
0.0
  0
LINE
  5
188
330
87
100
AcDbEntity
  8
P-SANR-FIXT
100
AcDbLine
 10
803.0203631491847
 20
1961.499999999995
 30
0.0
 11
803.0203631491847
 21
2038.499999999995
 31
0.0
  0
ENDBLK
  5
18A
330
87
100
AcDbEntity
  8
0
100
AcDbBlockEnd
  0
BLOCK
  5
297
330
18C
100
AcDbEntity
  8
0
100
AcDbBlockBegin
  2
Automatic flow rate regulator valve_Caleffi_121 DN15 - 1_2__-V1-Est - Idraulica
 70
     0
 10
0.0
 20
0.0
 30
0.0
  3
Automatic flow rate regulator valve_Caleffi_121 DN15 - 1_2__-V1-Est - Idraulica
  1

  0
LINE
  5
18D
330
18C
100
AcDbEntity
  8
M-PIPE
100
AcDbLine
 10
896.0203631491895
 20
1795.245878730051
 30
0.0
 11
816.0203631491896
 21
1795.245878730051
 31
0.0
1001
REVIT
1002
{
1070
     3
1000
856288
1002
}
  0
LINE
  5
18E
330
18C
100
AcDbEntity
  8
M-PIPE
100
AcDbLine
 10
816.0203631491894
 20
1817.245878730051
 30
0.0
 11
896.0203631491893
 21
1817.245878730051
 31
0.0
1001
REVIT
1002
{
1070
     3
1000
856288
1002
}
  0
LINE
  5
18F
330
18C
100
AcDbEntity
  8
M-PIPE
100
AcDbLine
 10
896.0203631491895
 20
1817.245878730051
 30
0.0
 11
896.0203631491895
 21
1795.245878730051
 31
0.0
1001
REVIT
1002
{
1070
     3
1000
856288
1002
}
  0
LINE
  5
190
330
18C
100
AcDbEntity
  8
M-PIPE
100
AcDbLine
 10
816.0203631491896
 20
1817.245878730051
 30
0.0
 11
816.0203631491896
 21
1795.245878730051
 31
0.0
1001
REVIT
1002
{
1070
     3
1000
856288
1002
}
  0
LINE
  5
191
330
18C
100
AcDbEntity
  8
M-PIPE
100
AcDbLine
 10
816.0203631491896
 20
1795.245878730051
 30
0.0
 11
811.7777224620382
 21
1795.245878730051
 31
0.0
1001
REVIT
1002
{
1070
     3
1000
856288
1002
}
  0
LINE
  5
192
330
18C
100
AcDbEntity
  8
M-PIPE
100
AcDbLine
 10
811.7777224620382
 20
1795.245878730051
 30
0.0
 11
794.7777224620702
 21
1795.245878730051
 31
0.0
1001
REVIT
1002
{
1070
     3
1000
856288
1002
}
  0
LINE
  5
193
330
18C
100
AcDbEntity
  8
M-PIPE
100
AcDbLine
 10
794.7777224620702
 20
1795.245878730051
 30
0.0
 11
756.0203631491897
 21
1795.245878730051
 31
0.0
1001
REVIT
1002
{
1070
     3
1000
856288
1002
}
  0
LINE
  5
194
330
18C
100
AcDbEntity
  8
M-PIPE
100
AcDbLine
 10
794.7777224620702
 20
1817.245878730051
 30
0.0
 11
811.7777224620382
 21
1817.245878730051
 31
0.0
1001
REVIT
1002
{
1070
     3
1000
856288
1002
}
  0
LINE
  5
195
330
18C
100
AcDbEntity
  8
M-PIPE
100
AcDbLine
 10
811.7777224620382
 20
1817.245878730051
 30
0.0
 11
816.0203631491896
 21
1817.245878730051
 31
0.0
1001
REVIT
1002
{
1070
     3
1000
856288
1002
}
  0
LINE
  5
196
330
18C
100
AcDbEntity
  8
M-PIPE
100
AcDbLine
 10
792.6693456304721
 20
1817.245878730051
 30
0.0
 11
794.7777224620702
 21
1817.245878730051
 31
0.0
1001
REVIT
1002
{
1070
     3
1000
856288
1002
}
  0
LINE
  5
197
330
18C
100
AcDbEntity
  8
M-PIPE
100
AcDbLine
 10
816.0203631491896
 20
1817.245878730051
 30
0.0
 11
816.0203631491896
 21
1795.245878730051
 31
0.0
1001
REVIT
1002
{
1070
     3
1000
856288
1002
}
  0
LINE
  5
198
330
18C
100
AcDbEntity
  8
M-PIPE
100
AcDbLine
 10
811.7777224620382
 20
1817.245878730051
 30
0.0
 11
811.7777224620382
 21
1795.245878730051
 31
0.0
1001
REVIT
1002
{
1070
     3
1000
856288
1002
}
  0
LINE
  5
199
330
18C
100
AcDbEntity
  8
M-PIPE
100
AcDbLine
 10
794.7777224620702
 20
1817.245878730051
 30
0.0
 11
794.7777224620702
 21
1795.245878730051
 31
0.0
1001
REVIT
1002
{
1070
     3
1000
856288
1002
}
  0
LINE
  5
19A
330
18C
100
AcDbEntity
  8
M-PIPE
100
AcDbLine
 10
792.6693456304721
 20
1817.245878730051
 30
0.0
 11
792.6693456304721
 21
1825.245878730051
 31
0.0
1001
REVIT
1002
{
1070
     3
1000
856288
1002
}
  0
LINE
  5
19B
330
18C
100
AcDbEntity
  8
M-PIPE
100
AcDbLine
 10
792.6693456304721
 20
1825.245878730051
 30
0.0
 11
770.0203631491896
 21
1825.245878730051
 31
0.0
1001
REVIT
1002
{
1070
     3
1000
856288
1002
}
  0
LINE
  5
19C
330
18C
100
AcDbEntity
  8
M-PIPE
100
AcDbLine
 10
770.0203631491896
 20
1825.245878730051
 30
0.0
 11
756.0203631491897
 21
1811.245878730051
 31
0.0
1001
REVIT
1002
{
1070
     3
1000
856288
1002
}
  0
LINE
  5
19D
330
18C
100
AcDbEntity
  8
M-PIPE
100
AcDbLine
 10
756.0203631491897
 20
1811.245878730051
 30
0.0
 11
756.0203631491897
 21
1795.245878730051
 31
0.0
1001
REVIT
1002
{
1070
     3
1000
856288
1002
}
  0
ARC
  5
19E
330
18C
100
AcDbEntity
  8
M-PIPE
100
AcDbCircle
 10
776.020363149202
 20
1806.245878730035
 30
0.0
 40
7.500000000000113
100
AcDbArc
 50
180.0
 51
0.0
1001
REVIT
1002
{
1070
     3
1000
856288
1002
}
  0
ARC
  5
19F
330
18C
100
AcDbEntity
  8
M-PIPE
100
AcDbCircle
 10
776.020363149202
 20
1806.245878730035
 30
0.0
 40
7.5
100
AcDbArc
 50
0.000000000001737
 51
180.0
1001
REVIT
1002
{
1070
     3
1000
856288
1002
}
  0
LINE
  5
1A0
330
18C
100
AcDbEntity
  8
M-PIPE
100
AcDbLine
 10
593.0203631491168
 20
1806.245878730052
 30
0.0
 11
593.0203631491166
 21
1828.74587873006
 31
0.0
1001
REVIT
1002
{
1070
     3
1000
790271
1002
}
  0
LINE
  5
1A1
330
18C
100
AcDbEntity
  8
M-PIPE
100
AcDbLine
 10
593.0203631491166
 20
1828.74587873006
 30
0.0
 11
593.0203631491171
 21
1851.245878730068
 31
0.0
1001
REVIT
1002
{
1070
     3
1000
790271
1002
}
  0
LINE
  5
1A2
330
18C
100
AcDbEntity
  8
M-PIPE
100
AcDbLine
 10
593.0203631491179
 20
1761.245878730036
 30
0.0
 11
593.0203631491171
 21
1783.745878730044
 31
0.0
1001
REVIT
1002
{
1070
     3
1000
790271
1002
}
  0
LINE
  5
1A3
330
18C
100
AcDbEntity
  8
M-PIPE
100
AcDbLine
 10
593.0203631491171
 20
1783.745878730044
 30
0.0
 11
593.0203631491168
 21
1806.245878730052
 31
0.0
1001
REVIT
1002
{
1070
     3
1000
790271
1002
}
  0
LINE
  5
1A4
330
18C
100
AcDbEntity
  8
M-PIPE
100
AcDbLine
 10
620.020363149117
 20
1851.245878730068
 30
0.0
 11
620.0203631491166
 21
1828.74587873006
 31
0.0
1001
REVIT
1002
{
1070
     3
1000
790271
1002
}
  0
LINE
  5
1A5
330
18C
100
AcDbEntity
  8
M-PIPE
100
AcDbLine
 10
620.0203631491166
 20
1828.74587873006
 30
0.0
 11
620.0203631491168
 21
1806.245878730053
 31
0.0
1001
REVIT
1002
{
1070
     3
1000
790271
1002
}
  0
LINE
  5
1A6
330
18C
100
AcDbEntity
  8
M-PIPE
100
AcDbLine
 10
620.0203631491168
 20
1806.245878730053
 30
0.0
 11
620.0203631491172
 21
1783.745878730043
 31
0.0
1001
REVIT
1002
{
1070
     3
1000
790271
1002
}
  0
LINE
  5
1A7
330
18C
100
AcDbEntity
  8
M-PIPE
100
AcDbLine
 10
620.0203631491172
 20
1783.745878730043
 30
0.0
 11
620.020363149118
 21
1761.245878730036
 31
0.0
1001
REVIT
1002
{
1070
     3
1000
790271
1002
}
  0
LINE
  5
1A8
330
18C
100
AcDbEntity
  8
M-PIPE
100
AcDbLine
 10
595.0410890912625
 20
1799.412323763932
 30
0.0
 11
617.999637206971
 21
1799.412323763932
 31
0.0
1001
REVIT
1002
{
1070
     3
1000
790271
1002
}
  0
LINE
  5
1A9
330
18C
100
AcDbEntity
  8
M-PIPE
100
AcDbLine
 10
617.9996372069637
 20
1799.412323763932
 30
0.0
 11
617.9996372069637
 21
1806.245878730053
 31
0.0
1001
REVIT
1002
{
1070
     3
1000
790271
1002
}
  0
LINE
  5
1AA
330
18C
100
AcDbEntity
  8
M-PIPE
100
AcDbLine
 10
617.9996372069637
 20
1806.245878730053
 30
0.0
 11
617.9996372069637
 21
1813.079433696146
 31
0.0
1001
REVIT
1002
{
1070
     3
1000
790271
1002
}
  0
LINE
  5
1AB
330
18C
100
AcDbEntity
  8
M-PIPE
100
AcDbLine
 10
595.0410890912722
 20
1813.079433696146
 30
0.0
 11
595.0410890912722
 21
1806.245878730053
 31
0.0
1001
REVIT
1002
{
1070
     3
1000
790271
1002
}
  0
LINE
  5
1AC
330
18C
100
AcDbEntity
  8
M-PIPE
100
AcDbLine
 10
595.0410890912722
 20
1806.245878730053
 30
0.0
 11
595.0410890912722
 21
1799.412323763932
 31
0.0
1001
REVIT
1002
{
1070
     3
1000
790271
1002
}
  0
LINE
  5
1AD
330
18C
100
AcDbEntity
  8
M-PIPE
100
AcDbLine
 10
617.9996372069729
 20
1813.079433696145
 30
0.0
 11
595.0410890912604
 21
1813.079433696145
 31
0.0
1001
REVIT
1002
{
1070
     3
1000
790271
1002
}
  0
SPLINE
  5
1AE
330
18C
100
AcDbEntity
  8
M-PIPE
100
AcDbSpline
210
0.0
220
0.0
230
1.0
 70
     8
 71
     3
 72
     9
 73
     5
 74
     0
 42
0.000000001
 43
0.0000000001
 40
0.0
 40
0.0
 40
0.0
 40
0.0
 40
0.5
 40
1.0
 40
1.0
 40
1.0
 40
1.0
 10
617.9996372069729
 20
1813.079433696145
 30
0.0
 10
618.6625710388646
 20
1815.682836692754
 30
0.0
 10
619.6622925277806
 20
1820.897313861677
 30
0.0
 10
620.0097216669613
 20
1826.127133382017
 30
0.0
 10
620.020363149118
 20
1828.745878730041
 30
0.0
1001
REVIT
1002
{
1070
     3
1000
790271
1002
}
  0
SPLINE
  5
1AF
330
18C
100
AcDbEntity
  8
M-PIPE
100
AcDbSpline
210
0.0
220
0.0
230
1.0
 70
     8
 71
     3
 72
     9
 73
     5
 74
     0
 42
0.000000001
 43
0.0000000001
 40
0.0
 40
0.0
 40
0.0
 40
0.0
 40
0.5
 40
1.0
 40
1.0
 40
1.0
 40
1.0
 10
620.020363149118
 20
1828.745878730041
 30
0.0
 10
620.0097216669615
 20
1831.364624078065
 30
0.0
 10
619.662292527781
 20
1836.594443598404
 30
0.0
 10
618.6625710388653
 20
1841.808920767326
 30
0.0
 10
617.9996372069738
 20
1844.412323763933
 30
0.0
1001
REVIT
1002
{
1070
     3
1000
790271
1002
}
  0
SPLINE
  5
1B0
330
18C
100
AcDbEntity
  8
M-PIPE
100
AcDbSpline
210
0.0
220
0.0
230
1.0
 70
     8
 71
     3
 72
     9
 73
     5
 74
     0
 42
0.000000001
 43
0.0000000001
 40
0.0
 40
0.0
 40
0.0
 40
0.0
 40
0.5
 40
1.0
 40
1.0
 40
1.0
 40
1.0
 10
595.0410890912593
 20
1844.412323763933
 30
0.0
 10
594.3781552593673
 20
1841.808920767326
 30
0.0
 10
593.3784337704519
 20
1836.594443598404
 30
0.0
 10
593.0310046312731
 20
1831.364624078065
 30
0.0
 10
593.0203631491179
 20
1828.745878730041
 30
0.0
1001
REVIT
1002
{
1070
     3
1000
790271
1002
}
  0
SPLINE
  5
1B1
330
18C
100
AcDbEntity
  8
M-PIPE
100
AcDbSpline
210
0.0
220
0.0
230
1.0
 70
     8
 71
     3
 72
     9
 73
     5
 74
     0
 42
0.000000001
 43
0.0000000001
 40
0.0
 40
0.0
 40
0.0
 40
0.0
 40
0.5
 40
1.0
 40
1.0
 40
1.0
 40
1.0
 10
593.0203631491179
 20
1828.745878730041
 30
0.0
 10
593.0310046312731
 20
1826.127133382017
 30
0.0
 10
593.3784337704521
 20
1820.897313861677
 30
0.0
 10
594.3781552593682
 20
1815.682836692753
 30
0.0
 10
595.0410890912603
 20
1813.079433696145
 30
0.0
1001
REVIT
1002
{
1070
     3
1000
790271
1002
}
  0
LINE
  5
1B2
330
18C
100
AcDbEntity
  8
M-PIPE
100
AcDbLine
 10
617.9996372069738
 20
1844.412323763933
 30
0.0
 11
595.0410890912593
 21
1844.412323763933
 31
0.0
1001
REVIT
1002
{
1070
     3
1000
790271
1002
}
  0
LINE
  5
1B3
330
18C
100
AcDbEntity
  8
M-PIPE
100
AcDbLine
 10
617.9996372069637
 20
1844.412323763933
 30
0.0
 11
617.9996372069637
 21
1851.24587873004
 31
0.0
1001
REVIT
1002
{
1070
     3
1000
790271
1002
}
  0
LINE
  5
1B4
330
18C
100
AcDbEntity
  8
M-PIPE
100
AcDbLine
 10
595.0410890912722
 20
1851.24587873004
 30
0.0
 11
595.0410890912722
 21
1844.412323763933
 31
0.0
1001
REVIT
1002
{
1070
     3
1000
790271
1002
}
  0
LINE
  5
1B5
330
18C
100
AcDbEntity
  8
M-PIPE
100
AcDbLine
 10
617.9996372069726
 20
1851.24587873004
 30
0.0
 11
595.0410890912606
 21
1851.24587873004
 31
0.0
1001
REVIT
1002
{
1070
     3
1000
790271
1002
}
  0
SPLINE
  5
1B6
330
18C
100
AcDbEntity
  8
M-PIPE
100
AcDbSpline
210
0.0
220
0.0
230
1.0
 70
    24
 71
     3
 72
     9
 73
     5
 74
     0
 42
0.000000001
 43
0.0000000001
 40
0.0
 40
0.0
 40
0.0
 40
0.0
 40
0.5
 40
1.0
 40
1.0
 40
1.0
 40
1.0
 10
617.9996372069726
 20
1851.24587873004
 30
0.0
 10
618.6625710388624
 20
1851.24587873004
 30
0.0
 10
619.6622925277765
 20
1851.24587873004
 30
0.0
 10
620.0097216669592
 20
1851.24587873004
 30
0.0
 10
620.020363149118
 20
1851.24587873004
 30
0.0
1001
REVIT
1002
{
1070
     3
1000
790271
1002
}
  0
SPLINE
  5
1B7
330
18C
100
AcDbEntity
  8
M-PIPE
100
AcDbSpline
210
0.0
220
0.0
230
1.0
 70
    24
 71
     3
 72
     9
 73
     5
 74
     0
 42
0.000000001
 43
0.0000000001
 40
0.0
 40
0.0
 40
0.0
 40
0.0
 40
0.5
 40
1.0
 40
1.0
 40
1.0
 40
1.0
 10
593.0203631491179
 20
1851.24587873004
 30
0.0
 10
593.0310046312756
 20
1851.24587873004
 30
0.0
 10
593.3784337704572
 20
1851.24587873004
 30
0.0
 10
594.3781552593707
 20
1851.24587873004
 30
0.0
 10
595.0410890912606
 20
1851.24587873004
 30
0.0
1001
REVIT
1002
{
1070
     3
1000
790271
1002
}
  0
SPLINE
  5
1B8
330
18C
100
AcDbEntity
  8
M-PIPE
100
AcDbSpline
210
0.0
220
0.0
230
1.0
 70
    24
 71
     3
 72
     9
 73
     5
 74
     0
 42
0.000000001
 43
0.0000000001
 40
0.0
 40
0.0
 40
0.0
 40
0.0
 40
0.5
 40
1.0
 40
1.0
 40
1.0
 40
1.0
 10
620.020363149118
 20
1761.24587873004
 30
0.0
 10
620.0097216669527
 20
1761.24587873004
 30
0.0
 10
619.6622925277611
 20
1761.24587873004
 30
0.0
 10
618.6625710388474
 20
1761.24587873004
 30
0.0
 10
617.9996372069601
 20
1761.24587873004
 30
0.0
1001
REVIT
1002
{
1070
     3
1000
790271
1002
}
  0
SPLINE
  5
1B9
330
18C
100
AcDbEntity
  8
M-PIPE
100
AcDbSpline
210
0.0
220
0.0
230
1.0
 70
    24
 71
     3
 72
     9
 73
     5
 74
     0
 42
0.000000001
 43
0.0000000001
 40
0.0
 40
0.0
 40
0.0
 40
0.0
 40
0.5
 40
1.0
 40
1.0
 40
1.0
 40
1.0
 10
595.0410890912747
 20
1761.24587873004
 30
0.0
 10
594.3781552593875
 20
1761.24587873004
 30
0.0
 10
593.3784337704743
 20
1761.24587873004
 30
0.0
 10
593.031004631283
 20
1761.24587873004
 30
0.0
 10
593.0203631491179
 20
1761.24587873004
 30
0.0
1001
REVIT
1002
{
1070
     3
1000
790271
1002
}
  0
LINE
  5
1BA
330
18C
100
AcDbEntity
  8
M-PIPE
100
AcDbLine
 10
617.9996372069601
 20
1761.245878730039
 30
0.0
 11
595.0410890912747
 21
1761.245878730039
 31
0.0
1001
REVIT
1002
{
1070
     3
1000
790271
1002
}
  0
LINE
  5
1BB
330
18C
100
AcDbEntity
  8
M-PIPE
100
AcDbLine
 10
617.9996372069637
 20
1761.245878730039
 30
0.0
 11
617.9996372069637
 21
1768.079433696146
 31
0.0
1001
REVIT
1002
{
1070
     3
1000
790271
1002
}
  0
LINE
  5
1BC
330
18C
100
AcDbEntity
  8
M-PIPE
100
AcDbLine
 10
595.0410890912722
 20
1768.079433696146
 30
0.0
 11
595.0410890912722
 21
1761.24587873004
 31
0.0
1001
REVIT
1002
{
1070
     3
1000
790271
1002
}
  0
SPLINE
  5
1BD
330
18C
100
AcDbEntity
  8
M-PIPE
100
AcDbSpline
210
0.0
220
0.0
230
1.0
 70
     8
 71
     3
 72
     9
 73
     5
 74
     0
 42
0.000000001
 43
0.0000000001
 40
0.0
 40
0.0
 40
0.0
 40
0.0
 40
0.5
 40
1.0
 40
1.0
 40
1.0
 40
1.0
 10
595.0410890912625
 20
1799.412323763932
 30
0.0
 10
594.3781552593732
 20
1796.808920767328
 30
0.0
 10
593.3784337704598
 20
1791.59444359841
 30
0.0
 10
593.0310046312769
 20
1786.364624078077
 30
0.0
 10
593.0203631491179
 20
1783.745878730057
 30
0.0
1001
REVIT
1002
{
1070
     3
1000
790271
1002
}
  0
SPLINE
  5
1BE
330
18C
100
AcDbEntity
  8
M-PIPE
100
AcDbSpline
210
0.0
220
0.0
230
1.0
 70
     8
 71
     3
 72
     9
 73
     5
 74
     0
 42
0.000000001
 43
0.0000000001
 40
0.0
 40
0.0
 40
0.0
 40
0.0
 40
0.5
 40
1.0
 40
1.0
 40
1.0
 40
1.0
 10
593.0203631491179
 20
1783.745878730057
 30
0.0
 10
593.031004631277
 20
1781.12713338203
 30
0.0
 10
593.3784337704614
 20
1775.897313861685
 30
0.0
 10
594.3781552593791
 20
1770.682836692756
 30
0.0
 10
595.0410890912713
 20
1768.079433696146
 30
0.0
1001
REVIT
1002
{
1070
     3
1000
790271
1002
}
  0
LINE
  5
1BF
330
18C
100
AcDbEntity
  8
M-PIPE
100
AcDbLine
 10
617.9996372069632
 20
1768.079433696146
 30
0.0
 11
595.0410890912713
 21
1768.079433696146
 31
0.0
1001
REVIT
1002
{
1070
     3
1000
790271
1002
}
  0
SPLINE
  5
1C0
330
18C
100
AcDbEntity
  8
M-PIPE
100
AcDbSpline
210
0.0
220
0.0
230
1.0
 70
     8
 71
     3
 72
     9
 73
     5
 74
     0
 42
0.000000001
 43
0.0000000001
 40
0.0
 40
0.0
 40
0.0
 40
0.0
 40
0.5
 40
1.0
 40
1.0
 40
1.0
 40
1.0
 10
617.9996372069632
 20
1768.079433696146
 30
0.0
 10
618.662571038855
 20
1770.682836692756
 30
0.0
 10
619.6622925277725
 20
1775.897313861684
 30
0.0
 10
620.0097216669582
 20
1781.127133382028
 30
0.0
 10
620.020363149118
 20
1783.745878730055
 30
0.0
1001
REVIT
1002
{
1070
     3
1000
790271
1002
}
  0
SPLINE
  5
1C1
330
18C
100
AcDbEntity
  8
M-PIPE
100
AcDbSpline
210
0.0
220
0.0
230
1.0
 70
     8
 71
     3
 72
     9
 73
     5
 74
     0
 42
0.000000001
 43
0.0000000001
 40
0.0
 40
0.0
 40
0.0
 40
0.0
 40
0.5
 40
1.0
 40
1.0
 40
1.0
 40
1.0
 10
620.020363149118
 20
1783.745878730055
 30
0.0
 10
620.0097216669582
 20
1786.364624078076
 30
0.0
 10
619.6622925277739
 20
1791.59444359841
 30
0.0
 10
618.6625710388601
 20
1796.808920767327
 30
0.0
 10
617.999637206971
 20
1799.412323763932
 30
0.0
1001
REVIT
1002
{
1070
     3
1000
790271
1002
}
  0
LINE
  5
1C2
330
18C
100
AcDbEntity
  8
P-SANR-FIXT
100
AcDbLine
 10
829.0203631491847
 20
1834.245878730071
 30
0.0
 11
829.0203631491847
 21
1830.719058762906
 31
0.0
  0
LINE
  5
1C3
330
18C
100
AcDbEntity
  8
P-SANR-FIXT
100
AcDbLine
 10
829.0203631491847
 20
1830.719058762906
 30
0.0
 11
829.0203631491847
 21
1817.245878730051
 31
0.0
  0
LINE
  5
1C4
330
18C
100
AcDbEntity
  8
P-SANR-FIXT
100
AcDbLine
 10
829.0203631491847
 20
1795.245878730051
 30
0.0
 11
829.0203631491847
 21
1781.772698697253
 31
0.0
  0
LINE
  5
1C5
330
18C
100
AcDbEntity
  8
P-SANR-FIXT
100
AcDbLine
 10
829.0203631491847
 20
1781.772698697253
 30
0.0
 11
829.0203631491847
 21
1778.245878730071
 31
0.0
  0
LINE
  5
1C6
330
18C
100
AcDbEntity
  8
P-SANR-FIXT
100
AcDbLine
 10
829.0203631491847
 20
1778.245878730071
 30
0.0
 11
803.0203631491847
 21
1778.245878730071
 31
0.0
  0
LINE
  5
1C7
330
18C
100
AcDbEntity
  8
P-SANR-FIXT
100
AcDbLine
 10
829.0203631491847
 20
1781.772698697253
 30
0.0
 11
803.0203631491847
 21
1781.772698697253
 31
0.0
  0
LINE
  5
1C8
330
18C
100
AcDbEntity
  8
P-SANR-FIXT
100
AcDbLine
 10
829.0203631491847
 20
1830.719058762906
 30
0.0
 11
803.0203631491847
 21
1830.719058762906
 31
0.0
  0
LINE
  5
1C9
330
18C
100
AcDbEntity
  8
P-SANR-FIXT
100
AcDbLine
 10
829.0203631491847
 20
1834.245878730071
 30
0.0
 11
803.0203631491847
 21
1834.245878730071
 31
0.0
  0
LINE
  5
1CA
330
18C
100
AcDbEntity
  8
P-SANR-FIXT
100
AcDbLine
 10
576.020363149137
 20
1778.245878730002
 30
0.0
 11
576.020363149137
 21
1781.772698697207
 31
0.0
  0
LINE
  5
1CB
330
18C
100
AcDbEntity
  8
P-SANR-FIXT
100
AcDbLine
 10
576.020363149137
 20
1781.772698697207
 30
0.0
 11
576.020363149137
 21
1802.719058762846
 31
0.0
  0
LINE
  5
1CC
330
18C
100
AcDbEntity
  8
P-SANR-FIXT
100
AcDbLine
 10
576.020363149137
 20
1802.719058762846
 30
0.0
 11
576.020363149137
 21
1809.772698697256
 31
0.0
  0
LINE
  5
1CD
330
18C
100
AcDbEntity
  8
P-SANR-FIXT
100
AcDbLine
 10
576.020363149137
 20
1809.772698697256
 30
0.0
 11
576.020363149137
 21
1830.719058762896
 31
0.0
  0
LINE
  5
1CE
330
18C
100
AcDbEntity
  8
P-SANR-FIXT
100
AcDbLine
 10
576.020363149137
 20
1830.719058762896
 30
0.0
 11
576.020363149137
 21
1834.245878730102
 31
0.0
  0
LINE
  5
1CF
330
18C
100
AcDbEntity
  8
P-SANR-FIXT
100
AcDbLine
 10
593.0203631491171
 20
1778.245878730002
 30
0.0
 11
576.020363149137
 21
1778.245878730002
 31
0.0
  0
LINE
  5
1D0
330
18C
100
AcDbEntity
  8
P-SANR-FIXT
100
AcDbLine
 10
593.0203631491171
 20
1781.772698697207
 30
0.0
 11
576.020363149137
 21
1781.772698697207
 31
0.0
  0
LINE
  5
1D1
330
18C
100
AcDbEntity
  8
P-SANR-FIXT
100
AcDbLine
 10
593.0203631491168
 20
1802.719058762846
 30
0.0
 11
576.020363149137
 21
1802.719058762846
 31
0.0
  0
LINE
  5
1D2
330
18C
100
AcDbEntity
  8
P-SANR-FIXT
100
AcDbLine
 10
593.0203631491166
 20
1809.772698697256
 30
0.0
 11
576.020363149137
 21
1809.772698697256
 31
0.0
  0
LINE
  5
1D3
330
18C
100
AcDbEntity
  8
P-SANR-FIXT
100
AcDbLine
 10
593.0203631491103
 20
1830.719058762896
 30
0.0
 11
576.020363149137
 21
1830.719058762896
 31
0.0
  0
LINE
  5
1D4
330
18C
100
AcDbEntity
  8
P-SANR-FIXT
100
AcDbLine
 10
593.0203631491166
 20
1834.245878730102
 30
0.0
 11
576.020363149137
 21
1834.245878730102
 31
0.0
  0
LINE
  5
1D5
330
18C
100
AcDbEntity
  8
P-SANR-FIXT
100
AcDbLine
 10
746.9378295748027
 20
1776.392937153875
 30
0.0
 11
751.2062083421843
 21
1772.124558386493
 31
0.0
  0
LINE
  5
1D6
330
18C
100
AcDbEntity
  8
P-SANR-FIXT
100
AcDbLine
 10
751.2062083421843
 20
1840.367199073613
 30
0.0
 11
746.9378295748027
 21
1836.098820306231
 31
0.0
  0
LWPOLYLINE
  5
1D7
330
18C
100
AcDbEntity
  8
P-SANR-FIXT
100
AcDbPolyline
 90
       21
 70
   128
 43
0.0
 10
753.3275286857438
 20
1771.245878730053
 10
753.2075606831839
 20
1771.24827841007
 10
753.0877846038365
 20
1771.255473611145
 10
752.9683920638773
 20
1771.267452822491
 10
752.8495740659011
 20
1771.284196879926
 10
752.7315206933589
 20
1771.305678996529
 10
752.6144208064624
 20
1771.331864805497
 10
752.4984617400516
 20
1771.36271241512
 10
752.3838290038955
 20
1771.398172475805
 10
752.2707059859186
 20
1771.438188259019
 10
752.159273658818
 20
1771.482695748044
 10
752.0497102905459
 20
1771.531623740393
 10
751.9421911591194
 20
1771.584893961715
 10
751.8368882722127
 20
1771.642421191019
 10
751.7339700919814
 20
1771.704113397013
 10
751.6336012655588
 20
1771.769871885324
 10
751.5359423616567
 20
1771.8395914564
 10
751.4411496136885
 20
1771.9131605738
 10
751.3493746698296
 20
1771.99046154263
 10
751.2607643504122
 20
1772.07137069783
 10
751.2062083421843
 20
1772.124558386493
  0
LWPOLYLINE
  5
1D8
330
18C
100
AcDbEntity
  8
P-SANR-FIXT
100
AcDbPolyline
 90
       21
 70
   128
 43
0.0
 10
751.2062083421843
 20
1840.367199073613
 10
751.2927353603325
 20
1840.450332431736
 10
751.3825176137354
 20
1840.529939134194
 10
751.4754114699398
 20
1840.605891827246
 10
751.5712683185924
 20
1840.678069002785
 10
751.6699348091834
 20
1840.746355192727
 10
751.7712530963757
 20
1840.810641153736
 10
751.8750610925235
 20
1840.870824041987
 10
751.9811927269769
 20
1840.926807577697
 10
752.0894782117615
 20
1840.978502199152
 10
752.199744313201
 20
1841.025825205985
 10
752.3118146290555
 20
1841.06870089148
 10
752.4255098707266
 20
1841.107060663687
 10
752.5406481500811
 20
1841.140843155153
 10
752.6570452704341
 20
1841.169994321098
 10
752.7745150212224
 20
1841.194467525876
 10
752.8928694759042
 20
1841.214223617579
 10
753.0119192925994
 20
1841.229230990675
 10
753.1314740169971
 20
1841.239465636569
 10
753.2513423870422
 20
1841.24491118201
 10
753.3275286857438
 20
1841.245878730053
  0
LINE
  5
1D9
330
18C
100
AcDbEntity
  8
P-SANR-FIXT
100
AcDbLine
 10
753.3275286857438
 20
1771.245878730053
 30
0.0
 11
791.9198244891636
 21
1771.245878730053
 31
0.0
  0
LINE
  5
1DA
330
18C
100
AcDbEntity
  8
P-SANR-FIXT
100
AcDbLine
 10
791.9198244891636
 20
1841.245878730053
 30
0.0
 11
753.3275286857438
 21
1841.245878730053
 31
0.0
  0
LINE
  5
1DB
330
18C
100
AcDbEntity
  8
P-SANR-FIXT
100
AcDbLine
 10
791.9198244891636
 20
1771.245878730053
 30
0.0
 11
794.0848879986247
 21
1767.495878730053
 31
0.0
  0
LINE
  5
1DC
330
18C
100
AcDbEntity
  8
P-SANR-FIXT
100
AcDbLine
 10
794.0848879986247
 20
1844.995878730053
 30
0.0
 11
791.9198244891636
 21
1841.245878730053
 31
0.0
  0
LINE
  5
1DD
330
18C
100
AcDbEntity
  8
P-SANR-FIXT
100
AcDbLine
 10
794.0848879986247
 20
1767.495878730053
 30
0.0
 11
800.0203631491862
 21
1767.495878730053
 31
0.0
  0
LINE
  5
1DE
330
18C
100
AcDbEntity
  8
P-SANR-FIXT
100
AcDbLine
 10
800.0203631491862
 20
1844.995878730053
 30
0.0
 11
794.0848879986247
 21
1844.995878730053
 31
0.0
  0
LINE
  5
1DF
330
18C
100
AcDbEntity
  8
P-SANR-FIXT
100
AcDbLine
 10
641.4867546692677
 20
1768.680385479572
 30
0.0
 11
682.4701323761328
 21
1768.680385479572
 31
0.0
  0
LINE
  5
1E0
330
18C
100
AcDbEntity
  8
P-SANR-FIXT
100
AcDbLine
 10
682.4701323761328
 20
1843.811371980533
 30
0.0
 11
641.4867546692677
 21
1843.811371980533
 31
0.0
  0
LINE
  5
1E1
330
18C
100
AcDbEntity
  8
P-SANR-FIXT
100
AcDbLine
 10
684.76826570549
 20
1771.680385479573
 30
0.0
 11
720.185442440146
 21
1771.680385479573
 31
0.0
  0
LINE
  5
1E2
330
18C
100
AcDbEntity
  8
P-SANR-FIXT
100
AcDbLine
 10
720.2949453357275
 20
1771.680385479573
 30
0.0
 11
721.1553767536413
 21
1771.680385479573
 31
0.0
  0
LINE
  5
1E3
330
18C
100
AcDbEntity
  8
P-SANR-FIXT
100
AcDbLine
 10
721.1553767536415
 20
1840.811371980533
 30
0.0
 11
720.2949453357277
 21
1840.811371980533
 31
0.0
  0
LINE
  5
1E4
330
18C
100
AcDbEntity
  8
P-SANR-FIXT
100
AcDbLine
 10
720.185442440146
 20
1840.811371980533
 30
0.0
 11
684.76826570549
 21
1840.811371980533
 31
0.0
  0
LINE
  5
1E5
330
18C
100
AcDbEntity
  8
P-SANR-FIXT
100
AcDbLine
 10
721.1553767536413
 20
1773.180385479573
 30
0.0
 11
729.336185227595
 21
1773.180385479573
 31
0.0
  0
LINE
  5
1E6
330
18C
100
AcDbEntity
  8
P-SANR-FIXT
100
AcDbLine
 10
729.336185227595
 20
1839.311371980533
 30
0.0
 11
721.1553767536415
 21
1839.311371980533
 31
0.0
  0
LINE
  5
1E7
330
18C
100
AcDbEntity
  8
P-SANR-FIXT
100
AcDbLine
 10
729.336185227595
 20
1773.180385479573
 30
0.0
 11
729.4378295747989
 21
1773.183547971711
 31
0.0
  0
LINE
  5
1E8
330
18C
100
AcDbEntity
  8
P-SANR-FIXT
100
AcDbLine
 10
729.336185227595
 20
1839.311371980533
 30
0.0
 11
729.4378295747989
 21
1839.308209488395
 31
0.0
  0
LINE
  5
1E9
330
18C
100
AcDbEntity
  8
P-SANR-FIXT
100
AcDbLine
 10
651.1749003672303
 20
1776.245878730053
 30
0.0
 11
663.5776152728375
 21
1776.245878730053
 31
0.0
  0
LINE
  5
1EA
330
18C
100
AcDbEntity
  8
P-SANR-FIXT
100
AcDbLine
 10
663.5776138711848
 20
1836.245878730053
 30
0.0
 11
651.174900371128
 21
1836.245878730053
 31
0.0
  0
LINE
  5
1EB
330
18C
100
AcDbEntity
  8
P-SANR-FIXT
100
AcDbLine
 10
620.0203631491188
 20
1764.495878730053
 30
0.0
 11
621.0203631491858
 21
1764.495878730053
 31
0.0
  0
LINE
  5
1EC
330
18C
100
AcDbEntity
  8
P-SANR-FIXT
100
AcDbLine
 10
621.0203631491858
 20
1847.995878730053
 30
0.0
 11
620.020363149118
 21
1847.995878730053
 31
0.0
  0
LINE
  5
1ED
330
18C
100
AcDbEntity
  8
P-SANR-FIXT
100
AcDbLine
 10
621.0203631491858
 20
1764.495878730053
 30
0.0
 11
627.2268785429742
 21
1775.245878730053
 31
0.0
  0
LINE
  5
1EE
330
18C
100
AcDbEntity
  8
P-SANR-FIXT
100
AcDbLine
 10
627.2268785429742
 20
1837.245878730053
 30
0.0
 11
621.0203631491858
 21
1847.995878730053
 31
0.0
  0
LINE
  5
1EF
330
18C
100
AcDbEntity
  8
P-SANR-FIXT
100
AcDbLine
 10
627.2268785429742
 20
1775.245878730053
 30
0.0
 11
631.2703631491858
 21
1775.245878730053
 31
0.0
  0
LINE
  5
1F0
330
18C
100
AcDbEntity
  8
P-SANR-FIXT
100
AcDbLine
 10
648.7703631491858
 20
1775.245878730053
 30
0.0
 11
651.020363149186
 21
1775.245878730053
 31
0.0
  0
LINE
  5
1F1
330
18C
100
AcDbEntity
  8
P-SANR-FIXT
100
AcDbLine
 10
651.020363149186
 20
1837.245878730053
 30
0.0
 11
648.7703631491858
 21
1837.245878730053
 31
0.0
  0
LINE
  5
1F2
330
18C
100
AcDbEntity
  8
P-SANR-FIXT
100
AcDbLine
 10
631.2703631491858
 20
1837.245878730053
 30
0.0
 11
627.2268785429742
 21
1837.245878730053
 31
0.0
  0
LINE
  5
1F3
330
18C
100
AcDbEntity
  8
P-SANR-FIXT
100
AcDbLine
 10
651.020363149186
 20
1775.245878730053
 30
0.0
 11
651.0463443403051
 21
1775.409917514835
 31
0.0
  0
LINE
  5
1F4
330
18C
100
AcDbEntity
  8
P-SANR-FIXT
100
AcDbLine
 10
651.0506803436889
 20
1775.437293962767
 30
0.0
 11
652.8222707227337
 21
1786.622675401846
 31
0.0
  0
LINE
  5
1F5
330
18C
100
AcDbEntity
  8
P-SANR-FIXT
100
AcDbLine
 10
652.8222706621169
 20
1825.86908244098
 30
0.0
 11
651.0506803302363
 21
1837.054463582276
 31
0.0
  0
LINE
  5
1F6
330
18C
100
AcDbEntity
  8
P-SANR-FIXT
100
AcDbLine
 10
651.0463443403502
 20
1837.081839944987
 30
0.0
 11
651.020363149186
 21
1837.245878730053
 31
0.0
  0
LINE
  5
1F7
330
18C
100
AcDbEntity
  8
P-SANR-FIXT
100
AcDbLine
 10
746.9378295748027
 20
1771.245878730053
 30
0.0
 11
746.9378295748027
 21
1776.392937153875
 31
0.0
  0
LINE
  5
1F8
330
18C
100
AcDbEntity
  8
P-SANR-FIXT
100
AcDbLine
 10
746.9378295748027
 20
1836.098820306231
 30
0.0
 11
746.9378295748027
 21
1841.245878730053
 31
0.0
  0
LINE
  5
1F9
330
18C
100
AcDbEntity
  8
P-SANR-FIXT
100
AcDbLine
 10
729.4378295747989
 20
1841.245878730053
 30
0.0
 11
729.4378295747989
 21
1838.740224734558
 31
0.0
  0
LINE
  5
1FA
330
18C
100
AcDbEntity
  8
P-SANR-FIXT
100
AcDbLine
 10
729.4378295747989
 20
1773.751532725538
 30
0.0
 11
729.4378295747989
 21
1771.245878730053
 31
0.0
  0
LINE
  5
1FB
330
18C
100
AcDbEntity
  8
P-SANR-FIXT
100
AcDbLine
 10
648.7703631491858
 20
1771.245878730053
 30
0.0
 11
648.7703631491858
 21
1775.245878730053
 31
0.0
  0
LINE
  5
1FC
330
18C
100
AcDbEntity
  8
P-SANR-FIXT
100
AcDbLine
 10
648.7703631491858
 20
1837.245878730053
 30
0.0
 11
648.7703631491858
 21
1841.245878730053
 31
0.0
  0
LINE
  5
1FD
330
18C
100
AcDbEntity
  8
P-SANR-FIXT
100
AcDbLine
 10
631.2703631491858
 20
1841.245878730053
 30
0.0
 11
631.2703631491858
 21
1837.245878730053
 31
0.0
  0
LINE
  5
1FE
330
18C
100
AcDbEntity
  8
P-SANR-FIXT
100
AcDbLine
 10
631.2703631491858
 20
1775.245878730053
 30
0.0
 11
631.2703631491858
 21
1771.245878730053
 31
0.0
  0
LINE
  5
1FF
330
18C
100
AcDbEntity
  8
P-SANR-FIXT
100
AcDbLine
 10
800.0203631491862
 20
1767.745878730053
 30
0.0
 11
803.0203631491859
 21
1767.745878730053
 31
0.0
  0
LINE
  5
200
330
18C
100
AcDbEntity
  8
P-SANR-FIXT
100
AcDbLine
 10
803.0203631491859
 20
1844.745878730053
 30
0.0
 11
800.0203631491862
 21
1844.745878730053
 31
0.0
  0
LINE
  5
201
330
18C
100
AcDbEntity
  8
P-SANR-FIXT
100
AcDbLine
 10
800.0203631491848
 20
1795.236714815756
 30
0.0
 11
800.0203631491848
 21
1767.495878730052
 31
0.0
  0
LINE
  5
202
330
18C
100
AcDbEntity
  8
P-SANR-FIXT
100
AcDbLine
 10
800.0203631491848
 20
1844.995878730052
 30
0.0
 11
800.0203631491848
 21
1817.255042644346
 31
0.0
  0
LWPOLYLINE
  5
203
330
18C
100
AcDbEntity
  8
P-SANR-FIXT
100
AcDbPolyline
 90
        3
 70
   128
 43
0.0
 10
724.2360310206366
 20
1784.734704100533
 10
727.1455630942632
 20
1783.343604443571
 10
730.18938697049
 20
1782.509565113688
  0
SPLINE
  5
204
330
18C
100
AcDbEntity
  8
P-SANR-FIXT
100
AcDbSpline
210
0.0
220
0.0
230
1.0
 70
     8
 71
     3
 72
    12
 73
     8
 74
     0
 42
0.000000001
 43
0.0000000001
 40
0.0
 40
0.0
 40
0.0
 40
0.0
 40
0.3333333333333333
 40
0.5
 40
0.6666666666666666
 40
0.8333333333333332
 40
1.0
 40
1.0
 40
1.0
 40
1.0
 10
730.18938697049
 20
1782.509565113688
 30
0.0
 10
730.793483879881
 20
1782.71076234066
 30
0.0
 10
732.1425548944983
 20
1783.143961484068
 30
0.0
 10
734.6431492434276
 20
1783.647306249182
 30
0.0
 10
736.7479584733379
 20
1783.887189898031
 30
0.0
 10
738.9699010522697
 20
1783.920075574542
 30
0.0
 10
740.3831182803766
 20
1783.800453199175
 30
0.0
 10
741.0848879986233
 20
1783.710785042406
 30
0.0
  0
SPLINE
  5
205
330
18C
100
AcDbEntity
  8
P-SANR-FIXT
100
AcDbSpline
210
0.0
220
0.0
230
1.0
 70
     8
 71
     3
 72
     8
 73
     4
 74
     0
 42
0.000000001
 43
0.0000000001
 40
0.0491821969953746
 40
0.0491821969953746
 40
0.0491821969953746
 40
0.0491821969953746
 40
0.0625
 40
0.0625
 40
0.0625
 40
0.0625
 10
740.2876225744263
 20
1797.79434488819
 30
0.0
 10
740.2152037507528
 20
1797.774852742311
 30
0.0
 10
740.1426473955983
 20
1797.756332140396
 30
0.0
 10
740.0699382797474
 20
1797.738777426774
 30
0.0
  0
SPLINE
  5
206
330
18C
100
AcDbEntity
  8
P-SANR-FIXT
100
AcDbSpline
210
0.0
220
0.0
230
1.0
 70
     8
 71
     3
 72
     8
 73
     4
 74
     0
 42
0.000000001
 43
0.0000000001
 40
0.1172702390345553
 40
0.1172702390345553
 40
0.1172702390345553
 40
0.1172702390345553
 40
0.125
 40
0.125
 40
0.125
 40
0.125
 10
739.1640434460185
 20
1797.570778036561
 30
0.0
 10
739.1209696870953
 20
1797.565152492694
 30
0.0
 10
739.077826469107
 20
1797.559848326248
 30
0.0
 10
739.0346067714824
 20
1797.554859809659
 30
0.0
  0
SPLINE
  5
207
330
18C
100
AcDbEntity
  8
P-SANR-FIXT
100
AcDbSpline
210
0.0
220
0.0
230
1.0
 70
     8
 71
     3
 72
     8
 73
     4
 74
     0
 42
0.000000001
 43
0.0000000001
 40
0.1847794408446456
 40
0.1847794408446456
 40
0.1847794408446456
 40
0.1847794408446456
 40
0.1875
 40
0.1875
 40
0.1875
 40
0.1875
 10
738.0224137244892
 20
1797.496712834984
 30
0.0
 10
738.0069712745344
 20
1797.496708627186
 30
0.0
 10
737.9915269163952
 20
1797.496744088881
 30
0.0
 10
737.9760810621571
 20
1797.496819312666
 30
0.0
  0
SPLINE
  5
208
330
18C
100
AcDbEntity
  8
P-SANR-FIXT
100
AcDbSpline
210
0.0
220
0.0
230
1.0
 70
     8
 71
     3
 72
     8
 73
     4
 74
     0
 42
0.000000001
 43
0.0000000001
 40
0.25
 40
0.25
 40
0.25
 40
0.25
 40
0.2521571712547193
 40
0.2521571712547193
 40
0.2521571712547193
 40
0.2521571712547193
 10
736.9141856742235
 20
1797.566081993153
 30
0.0
 10
736.9020470059609
 20
1797.567619454419
 30
0.0
 10
736.8899136195268
 20
1797.569183423379
 30
0.0
 10
736.8777855642764
 20
1797.57077381544
 30
0.0
  0
SPLINE
  5
209
330
18C
100
AcDbEntity
  8
P-SANR-FIXT
100
AcDbSpline
210
0.0
220
0.0
230
1.0
 70
     8
 71
     3
 72
     8
 73
     4
 74
     0
 42
0.000000001
 43
0.0000000001
 40
0.3125
 40
0.3125
 40
0.3125
 40
0.3125
 40
0.3198016326932803
 40
0.3198016326932803
 40
0.3198016326932803
 40
0.3198016326932803
 10
735.8724811245842
 20
1797.763405187102
 30
0.0
 10
735.8325264958737
 20
1797.773528690702
 30
0.0
 10
735.7926666359774
 20
1797.783942569499
 30
0.0
 10
735.7529007690934
 20
1797.794641590395
 30
0.0
  0
SPLINE
  5
20A
330
18C
100
AcDbEntity
  8
P-SANR-FIXT
100
AcDbSpline
210
0.0
220
0.0
230
1.0
 70
     8
 71
     3
 72
     8
 73
     4
 74
     0
 42
0.000000001
 43
0.0000000001
 40
0.375
 40
0.375
 40
0.375
 40
0.375
 40
0.3877480663610172
 40
0.3877480663610172
 40
0.3877480663610172
 40
0.3877480663610172
 10
734.8668229807314
 20
1798.083913010574
 30
0.0
 10
734.7999896093623
 20
1798.10974939412
 30
0.0
 10
734.7333979552286
 20
1798.136322726571
 30
0.0
 10
734.6670975603863
 20
1798.163644515223
 30
0.0
  0
SPLINE
  5
20B
330
18C
100
AcDbEntity
  8
P-SANR-FIXT
100
AcDbSpline
210
0.0
220
0.0
230
1.0
 70
     8
 71
     3
 72
     8
 73
     4
 74
     0
 42
0.000000001
 43
0.0000000001
 40
0.4375
 40
0.4375
 40
0.4375
 40
0.4375
 40
0.4560807343730959
 40
0.4560807343730959
 40
0.4560807343730959
 40
0.4560807343730959
 10
733.9108767182461
 20
1798.521068431294
 30
0.0
 10
733.819029453954
 20
1798.569924226618
 30
0.0
 10
733.7278542138894
 20
1798.620235059113
 30
0.0
 10
733.637624679494
 20
1798.672102578277
 30
0.0
  0
SPLINE
  5
20C
330
18C
100
AcDbEntity
  8
P-SANR-FIXT
100
AcDbSpline
210
0.0
220
0.0
230
1.0
 70
     8
 71
     3
 72
     8
 73
     4
 74
     0
 42
0.000000001
 43
0.0000000001
 40
0.5
 40
0.5
 40
0.5
 40
0.5
 40
0.5246717675791638
 40
0.5246717675791638
 40
0.5246717675791638
 40
0.5246717675791638
 10
733.0172637269043
 20
1799.067334576065
 30
0.0
 10
732.9043227918239
 20
1799.146050790771
 30
0.0
 10
732.7942930758124
 20
1799.22792446754
 30
0.0
 10
732.6869768349093
 20
1799.312707849564
 30
0.0
  0
SPLINE
  5
20D
330
18C
100
AcDbEntity
  8
P-SANR-FIXT
100
AcDbSpline
210
0.0
220
0.0
230
1.0
 70
     8
 71
     3
 72
     8
 73
     4
 74
     0
 42
0.000000001
 43
0.0000000001
 40
0.5625
 40
0.5625
 40
0.5625
 40
0.5625
 40
0.625
 40
0.625
 40
0.625
 40
0.625
 10
732.1977447493179
 20
1799.714726195494
 30
0.0
 10
731.9379943204837
 20
1799.946413236053
 30
0.0
 10
731.6983341855281
 20
1800.196195493635
 30
0.0
 10
731.4740438618338
 20
1800.459872623255
 30
0.0
  0
SPLINE
  5
20E
330
18C
100
AcDbEntity
  8
P-SANR-FIXT
100
AcDbSpline
210
0.0
220
0.0
230
1.0
 70
     8
 71
     3
 72
     8
 73
     4
 74
     0
 42
0.000000001
 43
0.0000000001
 40
0.6602603825891269
 40
0.6602603825891269
 40
0.6602603825891269
 40
0.6602603825891269
 40
0.6875
 40
0.6875
 40
0.6875
 40
0.6875
 10
731.086547935831
 20
1800.90915961567
 30
0.0
 10
730.9938616919213
 20
1801.029525956803
 30
0.0
 10
730.9056842144401
 20
1801.152909122327
 30
0.0
 10
730.820831718363
 20
1801.278695495246
 30
0.0
  0
SPLINE
  5
20F
330
18C
100
AcDbEntity
  8
P-SANR-FIXT
100
AcDbSpline
210
0.0
220
0.0
230
1.0
 70
     8
 71
     3
 72
     8
 73
     4
 74
     0
 42
0.000000001
 43
0.0000000001
 40
0.728803474679024
 40
0.728803474679024
 40
0.728803474679024
 40
0.728803474679024
 40
0.75
 40
0.75
 40
0.75
 40
0.75
 10
730.4472246370146
 20
1801.86290962703
 30
0.0
 10
730.387742560409
 20
1801.965670557737
 30
0.0
 10
730.3313174637949
 20
1802.070059699109
 30
0.0
 10
730.2749757938665
 20
1802.17507110551
 30
0.0
  0
SPLINE
  5
210
330
18C
100
AcDbEntity
  8
P-SANR-FIXT
100
AcDbSpline
210
0.0
220
0.0
230
1.0
 70
     8
 71
     3
 72
     8
 73
     4
 74
     0
 42
0.000000001
 43
0.0000000001
 40
0.7970510442861667
 40
0.7970510442861667
 40
0.7970510442861667
 40
0.7970510442861667
 40
0.8125
 40
0.8125
 40
0.8125
 40
0.8125
 10
729.9382087538366
 20
1802.893598294976
 30
0.0
 10
729.9048855546591
 20
1802.973959796751
 30
0.0
 10
729.8715840177557
 20
1803.054534683616
 30
0.0
 10
729.8390156241676
 20
1803.135451798884
 30
0.0
  0
SPLINE
  5
211
330
18C
100
AcDbEntity
  8
P-SANR-FIXT
100
AcDbSpline
210
0.0
220
0.0
230
1.0
 70
     8
 71
     3
 72
     8
 73
     4
 74
     0
 42
0.000000001
 43
0.0000000001
 40
0.8649802386732662
 40
0.8649802386732662
 40
0.8649802386732662
 40
0.8649802386732662
 40
0.875
 40
0.875
 40
0.875
 40
0.875
 10
729.5690355776956
 20
1803.97922029038
 30
0.0
 10
729.554434354342
 20
1804.03364637403
 30
0.0
 10
729.5398787738936
 20
1804.088076937395
 30
0.0
 10
729.5268481058863
 20
1804.142856569156
 30
0.0
  0
SPLINE
  5
212
330
18C
100
AcDbEntity
  8
P-SANR-FIXT
100
AcDbSpline
210
0.0
220
0.0
230
1.0
 70
     8
 71
     3
 72
     8
 73
     4
 74
     0
 42
0.000000001
 43
0.0000000001
 40
0.9330132008509023
 40
0.9330132008509023
 40
0.9330132008509023
 40
0.9330132008509023
 40
0.9375
 40
0.9375
 40
0.9375
 40
0.9375
 10
729.3461719806115
 20
1805.103955846634
 30
0.0
 10
729.3429015075485
 20
1805.129049202674
 30
0.0
 10
729.339933838057
 20
1805.15421991229
 30
0.0
 10
729.3372293636645
 20
1805.179457843989
 30
0.0
  0
SPLINE
  5
213
330
18C
100
AcDbEntity
  8
P-SANR-FIXT
100
AcDbSpline
210
0.0
220
0.0
230
1.0
 70
     8
 71
     3
 72
     8
 73
     4
 74
     0
 42
0.000000001
 43
0.0000000001
 40
0.0625
 40
0.0625
 40
0.0625
 40
0.0625
 40
0.0669867991490875
 40
0.0669867991490875
 40
0.0669867991490875
 40
0.0669867991490875
 10
729.3366800508713
 20
1807.312444497844
 30
0.0
 10
729.3397375889598
 20
1807.337589308685
 30
0.0
 10
729.3429018047592
 20
1807.362707771348
 30
0.0
 10
729.3461728082345
 20
1807.387800259909
 30
0.0
  0
SPLINE
  5
214
330
18C
100
AcDbEntity
  8
P-SANR-FIXT
100
AcDbSpline
210
0.0
220
0.0
230
1.0
 70
     8
 71
     3
 72
     8
 73
     4
 74
     0
 42
0.000000001
 43
0.0000000001
 40
0.125
 40
0.125
 40
0.125
 40
0.125
 40
0.1350197613267258
 40
0.1350197613267258
 40
0.1350197613267258
 40
0.1350197613267258
 10
729.5268481058863
 20
1808.348900890948
 30
0.0
 10
729.5403699262144
 20
1808.403561118982
 30
0.0
 10
729.5544308198262
 20
1808.458117796517
 30
0.0
 10
729.5690258241078
 20
1808.512555687364
 30
0.0
  0
SPLINE
  5
215
330
18C
100
AcDbEntity
  8
P-SANR-FIXT
100
AcDbSpline
210
0.0
220
0.0
230
1.0
 70
     8
 71
     3
 72
     8
 73
     4
 74
     0
 42
0.000000001
 43
0.0000000001
 40
0.1875
 40
0.1875
 40
0.1875
 40
0.1875
 40
0.2029489557138257
 40
0.2029489557138257
 40
0.2029489557138257
 40
0.2029489557138257
 10
729.8418077847435
 20
1809.355582409783
 30
0.0
 10
729.872744796428
 20
1809.436922100786
 30
0.0
 10
729.9048773759048
 20
1809.517815983614
 30
0.0
 10
729.9381902825277
 20
1809.598200540522
 30
0.0
  0
SPLINE
  5
216
330
18C
100
AcDbEntity
  8
P-SANR-FIXT
100
AcDbSpline
210
0.0
220
0.0
230
1.0
 70
     8
 71
     3
 72
     8
 73
     4
 74
     0
 42
0.000000001
 43
0.0000000001
 40
0.25
 40
0.25
 40
0.25
 40
0.25
 40
0.2711965253209701
 40
0.2711965253209701
 40
0.2711965253209701
 40
0.2711965253209701
 10
730.2749757938665
 20
1810.316686354595
 30
0.0
 10
730.330307289789
 20
1810.422013621325
 30
0.0
 10
730.3877727209103
 20
1810.526006416326
 30
0.0
 10
730.4473074469444
 20
1810.628626847243
 30
0.0
  0
SPLINE
  5
217
330
18C
100
AcDbEntity
  8
P-SANR-FIXT
100
AcDbSpline
210
0.0
220
0.0
230
1.0
 70
     8
 71
     3
 72
     8
 73
     4
 74
     0
 42
0.000000001
 43
0.0000000001
 40
0.3125
 40
0.3125
 40
0.3125
 40
0.3125
 40
0.3397396174108667
 40
0.3397396174108667
 40
0.3397396174108667
 40
0.3397396174108667
 10
730.8178381687489
 20
1811.214185670687
 30
0.0
 10
730.9042514677891
 20
1811.339386156077
 30
0.0
 10
730.9939071342873
 20
1811.462083441148
 30
0.0
 10
731.0866644576066
 20
1811.582218188481
 30
0.0
  0
SPLINE
  5
218
330
18C
100
AcDbEntity
  8
P-SANR-FIXT
100
AcDbSpline
210
0.0
220
0.0
230
1.0
 70
     8
 71
     3
 72
     8
 73
     4
 74
     0
 42
0.000000001
 43
0.0000000001
 40
0.375
 40
0.375
 40
0.375
 40
0.375
 40
0.4375
 40
0.4375
 40
0.4375
 40
0.4375
 10
731.4616820252495
 20
1812.037293083758
 30
0.0
 10
731.6921532672359
 20
1812.298266089924
 30
0.0
 10
731.9381764212489
 20
1812.544490296415
 30
0.0
 10
732.1980179004657
 20
1812.775750373154
 30
0.0
  0
SPLINE
  5
219
330
18C
100
AcDbEntity
  8
P-SANR-FIXT
100
AcDbSpline
210
0.0
220
0.0
230
1.0
 70
     8
 71
     3
 72
     8
 73
     4
 74
     0
 42
0.000000001
 43
0.0000000001
 40
0.4753282324208362
 40
0.4753282324208362
 40
0.4753282324208362
 40
0.4753282324208362
 40
0.5
 40
0.5
 40
0.5
 40
0.5
 10
732.6843503693768
 20
1813.180471816986
 30
0.0
 10
732.7933217278133
 20
1813.264358968393
 30
0.0
 10
732.9043523540042
 20
1813.345513787621
 30
0.0
 10
733.0172637269043
 20
1813.42442288404
 30
0.0
  0
SPLINE
  5
21A
330
18C
100
AcDbEntity
  8
P-SANR-FIXT
100
AcDbSpline
210
0.0
220
0.0
230
1.0
 70
     8
 71
     3
 72
     8
 73
     4
 74
     0
 42
0.000000001
 43
0.0000000001
 40
0.5439192656269042
 40
0.5439192656269042
 40
0.5439192656269042
 40
0.5439192656269042
 40
0.5625
 40
0.5625
 40
0.5625
 40
0.5625
 10
733.6381436357834
 20
1813.819334010151
 30
0.0
 10
733.7281003835191
 20
1813.871370193833
 30
0.0
 10
733.8190040678467
 20
1813.922106303455
 30
0.0
 10
733.910818012622
 20
1813.971320505813
 30
0.0
  0
SPLINE
  5
21B
330
18C
100
AcDbEntity
  8
P-SANR-FIXT
100
AcDbSpline
210
0.0
220
0.0
230
1.0
 70
     8
 71
     3
 72
     8
 73
     4
 74
     0
 42
0.000000001
 43
0.0000000001
 40
0.6122519336389828
 40
0.6122519336389828
 40
0.6122519336389828
 40
0.6122519336389828
 40
0.625
 40
0.625
 40
0.625
 40
0.625
 10
734.6673798686842
 20
1814.327914645168
 30
0.0
 10
734.7335027449222
 20
1814.35536112689
 30
0.0
 10
734.7999843825707
 20
1814.382168561071
 30
0.0
 10
734.8668229807314
 20
1814.40784444953
 30
0.0
  0
SPLINE
  5
21C
330
18C
100
AcDbEntity
  8
P-SANR-FIXT
100
AcDbSpline
210
0.0
220
0.0
230
1.0
 70
     8
 71
     3
 72
     8
 73
     4
 74
     0
 42
0.000000001
 43
0.0000000001
 40
0.6801983673067093
 40
0.6801983673067093
 40
0.6801983673067093
 40
0.6801983673067093
 40
0.6875
 40
0.6875
 40
0.6875
 40
0.6875
 10
735.7528669262351
 20
1814.697142799934
 30
0.0
 10
735.7926538627815
 20
1814.707825054789
 30
0.0
 10
735.8325229818941
 20
1814.718107338748
 30
0.0
 10
735.87247168539
 20
1814.728026087973
 30
0.0
  0
SPLINE
  5
21D
330
18C
100
AcDbEntity
  8
P-SANR-FIXT
100
AcDbSpline
210
0.0
220
0.0
230
1.0
 70
     8
 71
     3
 72
     8
 73
     4
 74
     0
 42
0.000000001
 43
0.0000000001
 40
0.7478428287452706
 40
0.7478428287452706
 40
0.7478428287452706
 40
0.7478428287452706
 40
0.75
 40
0.75
 40
0.75
 40
0.75
 10
736.8777829402317
 20
1814.920986008537
 30
0.0
 10
736.8899127294854
 20
1814.92257483852
 30
0.0
 10
736.9020458451291
 20
1814.92412555144
 30
0.0
 10
736.9141856742235
 20
1814.925675466951
 30
0.0
  0
SPLINE
  5
21E
330
18C
100
AcDbEntity
  8
P-SANR-FIXT
100
AcDbSpline
210
0.0
220
0.0
230
1.0
 70
     8
 71
     3
 72
     8
 73
     4
 74
     0
 42
0.000000001
 43
0.0000000001
 40
0.8125
 40
0.8125
 40
0.8125
 40
0.8125
 40
0.8152205591553444
 40
0.8152205591553444
 40
0.8152205591553444
 40
0.8152205591553444
 10
737.97608247871
 20
1814.994936705875
 30
0.0
 10
737.9915274091331
 20
1814.995012869786
 30
0.0
 10
738.0069772412346
 20
1814.995088357186
 30
0.0
 10
738.0224308454176
 20
1814.995158036574
 30
0.0
  0
SPLINE
  5
21F
330
18C
100
AcDbEntity
  8
P-SANR-FIXT
100
AcDbSpline
210
0.0
220
0.0
230
1.0
 70
     8
 71
     3
 72
     8
 73
     4
 74
     0
 42
0.000000001
 43
0.0000000001
 40
0.875
 40
0.875
 40
0.875
 40
0.875
 40
0.8827297609654344
 40
0.8827297609654344
 40
0.8827297609654344
 40
0.8827297609654344
 10
739.0346067714823
 20
1814.936897650446
 30
0.0
 10
739.077825021966
 20
1814.931910804426
 30
0.0
 10
739.1208747766768
 20
1814.925994905003
 30
0.0
 10
739.1637763219993
 20
1814.919262411599
 30
0.0
  0
SPLINE
  5
220
330
18C
100
AcDbEntity
  8
P-SANR-FIXT
100
AcDbSpline
210
0.0
220
0.0
230
1.0
 70
     8
 71
     3
 72
     8
 73
     4
 74
     0
 42
0.000000001
 43
0.0000000001
 40
0.9375
 40
0.9375
 40
0.9375
 40
0.9375
 40
0.9508178030046149
 40
0.9508178030046149
 40
0.9508178030046149
 40
0.9508178030046149
 10
740.0699311143991
 20
1814.752989393284
 30
0.0
 10
740.1426444982065
 20
1814.735429104514
 30
0.0
 10
740.2150225593782
 20
1814.715370989452
 30
0.0
 10
740.2871948277121
 20
1814.693791829702
 30
0.0
  0
SPLINE
  5
221
330
18C
100
AcDbEntity
  8
P-SANR-FIXT
100
AcDbSpline
210
0.0
220
0.0
230
1.0
 70
     8
 71
     3
 72
    12
 73
     8
 74
     0
 42
0.000000001
 43
0.0000000001
 40
0.0
 40
0.0
 40
0.0
 40
0.0
 40
0.1666666666666666
 40
0.3333333333333333
 40
0.5
 40
0.6666666666666666
 40
1.0
 40
1.0
 40
1.0
 40
1.0
 10
741.0848879986233
 20
1828.780972417699
 30
0.0
 10
740.3831182803766
 20
1828.69130426093
 30
0.0
 10
738.9699010522697
 20
1828.571681885562
 30
0.0
 10
736.7479584733379
 20
1828.604567562074
 30
0.0
 10
734.6431492434276
 20
1828.844451210923
 30
0.0
 10
732.1425548944983
 20
1829.347795976036
 30
0.0
 10
730.793483879881
 20
1829.780995119444
 30
0.0
 10
730.18938697049
 20
1829.982192346417
 30
0.0
  0
LWPOLYLINE
  5
222
330
18C
100
AcDbEntity
  8
P-SANR-FIXT
100
AcDbPolyline
 90
        3
 70
   128
 43
0.0
 10
730.18938697049
 20
1829.982192346417
 10
727.1455630942633
 20
1829.148153016533
 10
724.2360310206366
 20
1827.757053359571
  0
SPLINE
  5
223
330
18C
100
AcDbEntity
  8
P-SANR-FIXT
100
AcDbSpline
210
0.0
220
0.0
230
1.0
 70
     8
 71
     3
 72
     8
 73
     4
 74
     0
 42
0.000000001
 43
0.0000000001
 40
-0.9166666666666666
 40
-0.9166666666666666
 40
-0.9166666666666666
 40
-0.9166666666666666
 40
-0.9134825845816422
 40
-0.9134825845816422
 40
-0.9134825845816422
 40
-0.9134825845816422
 10
746.7009511297048
 20
1805.145927680008
 30
0.0
 10
746.6992189339837
 20
1805.132257083106
 30
0.0
 10
746.6974557038312
 20
1805.118600732369
 30
0.0
 10
746.6956616109817
 20
1805.104958769165
 30
0.0
  0
SPLINE
  5
224
330
18C
100
AcDbEntity
  8
P-SANR-FIXT
100
AcDbSpline
210
0.0
220
0.0
230
1.0
 70
     8
 71
     3
 72
     8
 73
     4
 74
     0
 42
0.000000001
 43
0.0000000001
 40
-0.8333333333333332
 40
-0.8333333333333332
 40
-0.8333333333333332
 40
-0.8333333333333332
 40
-0.8228067585846272
 40
-0.8228067585846272
 40
-0.8228067585846272
 40
-0.8228067585846272
 10
746.5041947457639
 20
1804.104126774076
 30
0.0
 10
746.4934718584319
 20
1804.061652765281
 30
0.0
 10
746.4824551903507
 20
1804.019358624668
 30
0.0
 10
746.4711505336558
 20
1803.97724824499
 30
0.0
  0
SPLINE
  5
225
330
18C
100
AcDbEntity
  8
P-SANR-FIXT
100
AcDbSpline
210
0.0
220
0.0
230
1.0
 70
     8
 71
     3
 72
     8
 73
     4
 74
     0
 42
0.000000001
 43
0.0000000001
 40
-0.75
 40
-0.75
 40
-0.75
 40
-0.75
 40
-0.7281144466078016
 40
-0.7281144466078016
 40
-0.7281144466078016
 40
-0.7281144466078016
 10
746.1972859998493
 20
1803.131326965461
 30
0.0
 10
746.1661362792461
 20
1803.049545246492
 30
0.0
 10
746.133946356089
 20
1802.968725120663
 30
0.0
 10
746.1007870890202
 20
1802.88890879176
 30
0.0
  0
SPLINE
  5
226
330
18C
100
AcDbEntity
  8
P-SANR-FIXT
100
AcDbSpline
210
0.0
220
0.0
230
1.0
 70
     8
 71
     3
 72
    10
 73
     6
 74
     0
 42
0.000000001
 43
0.0000000001
 40
-0.6666666666666666
 40
-0.6666666666666666
 40
-0.6666666666666666
 40
-0.6666666666666666
 40
-0.6458333333333333
 40
-0.625
 40
-0.5833333333333333
 40
-0.5833333333333333
 40
-0.5833333333333333
 40
-0.5833333333333333
 10
745.8002021729591
 20
1802.241305748548
 30
0.0
 10
745.7640241410406
 20
1802.17101999672
 30
0.0
 10
745.6903086728309
 20
1802.032493187036
 30
0.0
 10
745.5378508106483
 20
1801.763551268766
 30
0.0
 10
745.4180956686034
 20
1801.570585319575
 30
0.0
 10
745.3360872629522
 20
1801.4455994995
 30
0.0
  0
SPLINE
  5
227
330
18C
100
AcDbEntity
  8
P-SANR-FIXT
100
AcDbSpline
210
0.0
220
0.0
230
1.0
 70
     8
 71
     3
 72
     8
 73
     4
 74
     0
 42
0.000000001
 43
0.0000000001
 40
-0.5213979308819976
 40
-0.5213979308819976
 40
-0.5213979308819976
 40
-0.5213979308819976
 40
-0.5
 40
-0.5
 40
-0.5
 40
-0.5
 10
744.9561247781448
 20
1800.911306073824
 30
0.0
 10
744.9107752917448
 20
1800.852344239057
 30
0.0
 10
744.8649172941282
 20
1800.794275399453
 30
0.0
 10
744.818611415913
 20
1800.737129279954
 30
0.0
  0
SPLINE
  5
228
330
18C
100
AcDbEntity
  8
P-SANR-FIXT
100
AcDbSpline
210
0.0
220
0.0
230
1.0
 70
     8
 71
     3
 72
     8
 73
     4
 74
     0
 42
0.000000001
 43
0.0000000001
 40
-0.4166666666666666
 40
-0.4166666666666666
 40
-0.4166666666666666
 40
-0.4166666666666666
 40
-0.4091667562054191
 40
-0.4091667562054191
 40
-0.4091667562054191
 40
-0.4091667562054191
 10
744.2602555277342
 20
1800.111855327411
 30
0.0
 10
744.2430304974968
 20
1800.09433304132
 30
0.0
 10
744.2257631006951
 20
1800.076913503939
 30
0.0
 10
744.2084523320248
 20
1800.059595249761
 30
0.0
  0
SPLINE
  5
229
330
18C
100
AcDbEntity
  8
P-SANR-FIXT
100
AcDbSpline
210
0.0
220
0.0
230
1.0
 70
     8
 71
     3
 72
     9
 73
     5
 74
     0
 42
0.000000001
 43
0.0000000001
 40
-0.3333333333333333
 40
-0.3333333333333333
 40
-0.3333333333333333
 40
-0.3333333333333333
 40
-0.2916666666666666
 40
-0.25
 40
-0.25
 40
-0.25
 40
-0.25
 10
743.6695946944604
 20
1799.563911733135
 30
0.0
 10
743.5685258270182
 20
1799.478464413803
 30
0.0
 10
743.3642465862578
 20
1799.313027466928
 30
0.0
 10
743.1567135855772
 20
1799.162111763237
 30
0.0
 10
743.0524234904345
 20
1799.08760598294
 30
0.0
  0
SPLINE
  5
22A
330
18C
100
AcDbEntity
  8
P-SANR-FIXT
100
AcDbSpline
210
0.0
220
0.0
230
1.0
 70
     8
 71
     3
 72
     8
 73
     4
 74
     0
 42
0.000000001
 43
0.0000000001
 40
-0.1666666666666666
 40
-0.1666666666666666
 40
-0.1666666666666666
 40
-0.1666666666666666
 40
-0.1643027956639641
 40
-0.1643027956639641
 40
-0.1643027956639641
 40
-0.1643027956639641
 10
742.4139671464247
 20
1798.678927962705
 30
0.0
 10
742.4078275239452
 20
1798.675364084514
 30
0.0
 10
742.4016818572162
 20
1798.671825107894
 30
0.0
 10
742.3955303165637
 20
1798.66831032985
 30
0.0
  0
SPLINE
  5
22B
330
18C
100
AcDbEntity
  8
P-SANR-FIXT
100
AcDbSpline
210
0.0
220
0.0
230
1.0
 70
     8
 71
     3
 72
     8
 73
     4
 74
     0
 42
0.000000001
 43
0.0000000001
 40
-0.0833333333333333
 40
-0.0833333333333333
 40
-0.0833333333333333
 40
-0.0833333333333333
 40
0.0
 40
0.0
 40
0.0
 40
0.0
 10
741.7555854996633
 20
1798.333273876318
 30
0.0
 10
741.5335881365531
 20
1798.228470031364
 30
0.0
 10
741.309538131063
 20
1798.134075503334
 30
0.0
 10
741.0848879986232
 20
1798.050075691473
 30
0.0
  0
LINE
  5
22C
330
18C
100
AcDbEntity
  8
P-SANR-FIXT
100
AcDbLine
 10
741.0848879986233
 20
1783.710785042406
 30
0.0
 11
741.0848879986232
 21
1798.050075691473
 31
0.0
  0
SPLINE
  5
22D
330
18C
100
AcDbEntity
  8
P-SANR-FIXT
100
AcDbSpline
210
0.0
220
0.0
230
1.0
 70
     8
 71
     3
 72
    26
 73
    22
 74
     0
 42
0.000000001
 43
0.0000000001
 40
-1.0
 40
-1.0
 40
-1.0
 40
-1.0
 40
-0.9
 40
-0.8
 40
-0.75
 40
-0.7
 40
-0.65
 40
-0.6
 40
-0.55
 40
-0.5
 40
-0.45
 40
-0.425
 40
-0.4
 40
-0.375
 40
-0.35
 40
-0.3
 40
-0.25
 40
-0.2
 40
-0.15
 40
-0.1
 40
0.0
 40
0.0
 40
0.0
 40
0.0
 10
741.0848879986232
 20
1783.710785042406
 30
0.0
 10
741.3608532977977
 20
1783.373325413727
 30
0.0
 10
741.9108142739979
 20
1782.70595160501
 30
0.0
 10
742.5858792157472
 20
1781.893793845286
 30
0.0
 10
743.10844418304
 20
1781.25155075498
 30
0.0
 10
743.4898896574418
 20
1780.773219191317
 30
0.0
 10
743.8628014587935
 20
1780.303766924111
 30
0.0
 10
744.228968229228
 20
1779.851015113955
 30
0.0
 10
744.5835535348908
 20
1779.407695101585
 30
0.0
 10
744.922466898196
 20
1778.971026149313
 30
0.0
 10
745.1930226650964
 20
1778.623738001261
 30
0.0
 10
745.4016520102266
 20
1778.359673511674
 30
0.0
 10
745.5541311583175
 20
1778.171167840286
 30
0.0
 10
745.7018922402706
 20
1777.987796051619
 30
0.0
 10
745.8913152246093
 20
1777.745481707842
 30
0.0
 10
746.1127633902255
 20
1777.455649369393
 30
0.0
 10
746.3494948341266
 20
1777.143521140146
 30
0.0
 10
746.5527963043506
 20
1776.88820287447
 30
0.0
 10
746.7184117334263
 20
1776.692216892733
 30
0.0
 10
746.8834047025368
 20
1776.491007848792
 30
0.0
 10
746.9378295748015
 20
1776.413064770942
 30
0.0
 10
746.9378295748015
 20
1776.392937153874
 30
0.0
  0
SPLINE
  5
22E
330
18C
100
AcDbEntity
  8
P-SANR-FIXT
100
AcDbSpline
210
0.0
220
0.0
230
1.0
 70
     8
 71
     3
 72
    25
 73
    21
 74
     0
 42
0.000000001
 43
0.0000000001
 40
-1.0
 40
-1.0
 40
-1.0
 40
-1.0
 40
-0.9
 40
-0.85
 40
-0.8
 40
-0.75
 40
-0.7
 40
-0.65
 40
-0.6
 40
-0.575
 40
-0.55
 40
-0.5
 40
-0.45
 40
-0.4
 40
-0.35
 40
-0.3
 40
-0.25
 40
-0.2
 40
-0.1
 40
0.0
 40
0.0
 40
0.0
 40
0.0
 10
746.9378295748015
 20
1836.09882030623
 30
0.0
 10
746.9378295748015
 20
1836.078692689163
 30
0.0
 10
746.8834045456081
 20
1836.000751680562
 30
0.0
 10
746.7184119949739
 20
1835.799537118623
 30
0.0
 10
746.5527953104697
 20
1835.603567690878
 30
0.0
 10
746.3494985481027
 20
1835.348187347731
 30
0.0
 10
746.1127495282029
 20
1835.036290874379
 30
0.0
 10
745.8470773256013
 20
1834.687627122129
 30
0.0
 10
745.6049843997821
 20
1834.383070685774
 30
0.0
 10
745.4016470571559
 20
1834.132149259276
 30
0.0
 10
745.1930255247532
 20
1833.867981751609
 30
0.0
 10
744.9224659266393
 20
1833.520744121671
 30
0.0
 10
744.5835537952185
 20
1833.084058925857
 30
0.0
 10
744.2289681594741
 20
1832.640743265921
 30
0.0
 10
743.862801477482
 20
1832.187990289568
 30
0.0
 10
743.4898896524422
 20
1831.718538334713
 30
0.0
 10
743.1084441843503
 20
1831.240206687848
 30
0.0
 10
742.5858792149887
 20
1830.597963624821
 30
0.0
 10
741.9108142742738
 20
1829.785805851457
 30
0.0
 10
741.3608532977977
 20
1829.118432046377
 30
0.0
 10
741.0848879986232
 20
1828.780972417699
 30
0.0
  0
LINE
  5
22F
330
18C
100
AcDbEntity
  8
P-SANR-FIXT
100
AcDbLine
 10
741.0848879986232
 20
1814.441681768632
 30
0.0
 11
741.0848879986233
 21
1828.780972417699
 31
0.0
  0
SPLINE
  5
230
330
18C
100
AcDbEntity
  8
P-SANR-FIXT
100
AcDbSpline
210
0.0
220
0.0
230
1.0
 70
     8
 71
     3
 72
     8
 73
     4
 74
     0
 42
0.000000001
 43
0.0000000001
 40
-1.0
 40
-1.0
 40
-1.0
 40
-1.0
 40
-0.9166666666666666
 40
-0.9166666666666666
 40
-0.9166666666666666
 40
-0.9166666666666666
 10
741.0848879986231
 20
1814.441681768632
 30
0.0
 10
741.309538131063
 20
1814.357681956771
 30
0.0
 10
741.5335881365519
 20
1814.263287428742
 30
0.0
 10
741.7555854996617
 20
1814.158483583789
 30
0.0
  0
SPLINE
  5
231
330
18C
100
AcDbEntity
  8
P-SANR-FIXT
100
AcDbSpline
210
0.0
220
0.0
230
1.0
 70
     8
 71
     3
 72
     8
 73
     4
 74
     0
 42
0.000000001
 43
0.0000000001
 40
-0.8356972043360352
 40
-0.8356972043360352
 40
-0.8356972043360352
 40
-0.8356972043360352
 40
-0.8333333333333333
 40
-0.8333333333333333
 40
-0.8333333333333333
 40
-0.8333333333333333
 10
742.3955398508054
 20
1813.823495969314
 30
0.0
 10
742.4016850810207
 20
1813.819948866117
 30
0.0
 10
742.407827523945
 20
1813.81639337559
 30
0.0
 10
742.4139671464247
 20
1813.812829497399
 30
0.0
  0
SPLINE
  5
232
330
18C
100
AcDbEntity
  8
P-SANR-FIXT
100
AcDbSpline
210
0.0
220
0.0
230
1.0
 70
     8
 71
     3
 72
     9
 73
     5
 74
     0
 42
0.000000001
 43
0.0000000001
 40
-0.75
 40
-0.75
 40
-0.75
 40
-0.75
 40
-0.7083333333333333
 40
-0.6666666666666666
 40
-0.6666666666666666
 40
-0.6666666666666666
 40
-0.6666666666666666
 10
743.0524234904344
 20
1813.404151477164
 30
0.0
 10
743.1569646784204
 20
1813.330661505446
 30
0.0
 10
743.3641210398146
 20
1813.178222088905
 30
0.0
 10
743.5685258270612
 20
1813.013293046268
 30
0.0
 10
743.6695946944604
 20
1812.927845726969
 30
0.0
  0
SPLINE
  5
233
330
18C
100
AcDbEntity
  8
P-SANR-FIXT
100
AcDbSpline
210
0.0
220
0.0
230
1.0
 70
     8
 71
     3
 72
     8
 73
     4
 74
     0
 42
0.000000001
 43
0.0000000001
 40
-0.590833243794581
 40
-0.590833243794581
 40
-0.590833243794581
 40
-0.590833243794581
 40
-0.5833333333333333
 40
-0.5833333333333333
 40
-0.5833333333333333
 40
-0.5833333333333333
 10
744.2084515855382
 20
1812.432159704125
 30
0.0
 10
744.2257627973106
 20
1812.414842937287
 30
0.0
 10
744.243030497583
 20
1812.397424418678
 30
0.0
 10
744.2602555277341
 20
1812.379902132693
 30
0.0
  0
SPLINE
  5
234
330
18C
100
AcDbEntity
  8
P-SANR-FIXT
100
AcDbSpline
210
0.0
220
0.0
230
1.0
 70
     8
 71
     3
 72
     8
 73
     4
 74
     0
 42
0.000000001
 43
0.0000000001
 40
-0.5
 40
-0.5
 40
-0.5
 40
-0.5
 40
-0.4786020691179976
 40
-0.4786020691179976
 40
-0.4786020691179976
 40
-0.4786020691179976
 10
744.818611415913
 20
1811.754628180151
 30
0.0
 10
744.8649173752122
 20
1811.69748232848
 30
0.0
 10
744.910775280882
 20
1811.639413232571
 30
0.0
 10
744.9561247645192
 20
1811.580451399904
 30
0.0
  0
SPLINE
  5
235
330
18C
100
AcDbEntity
  8
P-SANR-FIXT
100
AcDbSpline
210
0.0
220
0.0
230
1.0
 70
     8
 71
     3
 72
    10
 73
     6
 74
     0
 42
0.000000001
 43
0.0000000001
 40
-0.4166666666666666
 40
-0.4166666666666666
 40
-0.4166666666666666
 40
-0.4166666666666666
 40
-0.375
 40
-0.3541666666666666
 40
-0.3333333333333333
 40
-0.3333333333333333
 40
-0.3333333333333333
 40
-0.3333333333333333
 10
745.3360872629521
 20
1811.046157960605
 30
0.0
 10
745.4180956090513
 20
1810.921172332439
 30
0.0
 10
745.5378502515255
 20
1810.728206720303
 30
0.0
 10
745.6903096245529
 20
1810.459263327491
 30
0.0
 10
745.764022041297
 20
1810.320739562845
 30
0.0
 10
745.8002021729591
 20
1810.250451711557
 30
0.0
  0
SPLINE
  5
236
330
18C
100
AcDbEntity
  8
P-SANR-FIXT
100
AcDbSpline
210
0.0
220
0.0
230
1.0
 70
     8
 71
     3
 72
     8
 73
     4
 74
     0
 42
0.000000001
 43
0.0000000001
 40
-0.2718855533921904
 40
-0.2718855533921904
 40
-0.2718855533921904
 40
-0.2718855533921904
 40
-0.25
 40
-0.25
 40
-0.25
 40
-0.25
 10
746.1007848776818
 20
1809.602851839859
 30
0.0
 10
746.1339445007199
 20
1809.523035000387
 30
0.0
 10
746.1661540177333
 20
1809.442222922696
 30
0.0
 10
746.1972859998493
 20
1809.360430494644
 30
0.0
  0
SPLINE
  5
237
330
18C
100
AcDbEntity
  8
P-SANR-FIXT
100
AcDbSpline
210
0.0
220
0.0
230
1.0
 70
     8
 71
     3
 72
     8
 73
     4
 74
     0
 42
0.000000001
 43
0.0000000001
 40
-0.1771932414153656
 40
-0.1771932414153656
 40
-0.1771932414153656
 40
-0.1771932414153656
 40
-0.1666666666666666
 40
-0.1666666666666666
 40
-0.1666666666666666
 40
-0.1666666666666666
 10
746.4711504501553
 20
1808.51450933487
 30
0.0
 10
746.4824551366286
 20
1808.472398912482
 30
0.0
 10
746.4935223774306
 20
1808.430127576605
 30
0.0
 10
746.5041947457639
 20
1808.387630686028
 30
0.0
  0
SPLINE
  5
238
330
18C
100
AcDbEntity
  8
P-SANR-FIXT
100
AcDbSpline
210
0.0
220
0.0
230
1.0
 70
     8
 71
     3
 72
     8
 73
     4
 74
     0
 42
0.000000001
 43
0.0000000001
 40
-0.0865174154183511
 40
-0.0865174154183511
 40
-0.0865174154183511
 40
-0.0865174154183511
 40
-0.0833333333333333
 40
-0.0833333333333333
 40
-0.0833333333333333
 40
-0.0833333333333333
 10
746.695661609045
 20
1807.386798693717
 30
0.0
 10
746.6974557025721
 20
1807.373156729541
 30
0.0
 10
746.6992508082044
 20
1807.359512216829
 30
0.0
 10
746.7009511297048
 20
1807.345829780097
 30
0.0
  0
SPLINE
  5
239
330
18C
100
AcDbEntity
  8
P-SANR-FIXT
100
AcDbSpline
210
0.0
220
0.0
230
1.0
 70
     8
 71
     3
 72
     8
 73
     4
 74
     0
 42
0.000000001
 43
0.0000000001
 40
0.3055555555555556
 40
0.3055555555555556
 40
0.3055555555555556
 40
0.3055555555555556
 40
0.3058838472938306
 40
0.3058838472938306
 40
0.3058838472938306
 40
0.3058838472938306
 10
784.3551224077401
 20
1794.380286189639
 30
0.0
 10
784.351082516786
 20
1794.377441521432
 30
0.0
 10
784.3470412111389
 20
1794.374598984914
 30
0.0
 10
784.3429984937509
 20
1794.371758583866
 30
0.0
  0
SPLINE
  5
23A
330
18C
100
AcDbEntity
  8
P-SANR-FIXT
100
AcDbSpline
210
0.0
220
0.0
230
1.0
 70
     8
 71
     3
 72
     8
 73
     4
 74
     0
 42
0.000000001
 43
0.0000000001
 40
0.3333333333333333
 40
0.3333333333333333
 40
0.3333333333333333
 40
0.3333333333333333
 40
0.3341023259019256
 40
0.3341023259019256
 40
0.3341023259019256
 40
0.3341023259019256
 10
783.3010427053753
 20
1793.706273265761
 30
0.0
 10
783.2910683648705
 20
1793.700518311708
 30
0.0
 10
783.2810876325879
 20
1793.694776809658
 30
0.0
 10
783.271100402331
 20
1793.689048652294
 30
0.0
  0
SPLINE
  5
23B
330
18C
100
AcDbEntity
  8
P-SANR-FIXT
100
AcDbSpline
210
0.0
220
0.0
230
1.0
 70
     8
 71
     3
 72
     8
 73
     4
 74
     0
 42
0.000000001
 43
0.0000000001
 40
0.3611111111111111
 40
0.3611111111111111
 40
0.3611111111111111
 40
0.3611111111111111
 40
0.3621610169074822
 40
0.3621610169074822
 40
0.3621610169074822
 40
0.3621610169074822
 10
782.1901286995721
 20
1793.130225888357
 30
0.0
 10
782.1756910864503
 20
1793.123504309302
 30
0.0
 10
782.1612344081629
 20
1793.116800579253
 30
0.0
 10
782.1467591442435
 20
1793.110114964503
 30
0.0
  0
SPLINE
  5
23C
330
18C
100
AcDbEntity
  8
P-SANR-FIXT
100
AcDbSpline
210
0.0
220
0.0
230
1.0
 70
     8
 71
     3
 72
     8
 73
     4
 74
     0
 42
0.000000001
 43
0.0000000001
 40
0.3888888888888888
 40
0.3888888888888888
 40
0.3888888888888888
 40
0.3888888888888888
 40
0.3897059883058253
 40
0.3897059883058253
 40
0.3897059883058253
 40
0.3897059883058253
 10
781.0130280420239
 20
1792.639133684993
 30
0.0
 10
781.0012679363601
 20
1792.634782667986
 30
0.0
 10
780.9895039676478
 20
1792.630446729219
 30
0.0
 10
780.9777361533457
 20
1792.626125901676
 30
0.0
  0
SPLINE
  5
23D
330
18C
100
AcDbEntity
  8
P-SANR-FIXT
100
AcDbSpline
210
0.0
220
0.0
230
1.0
 70
     8
 71
     3
 72
     8
 73
     4
 74
     0
 42
0.000000001
 43
0.0000000001
 40
0.4166666666666668
 40
0.4166666666666668
 40
0.4166666666666668
 40
0.4166666666666668
 40
0.4171970850209251
 40
0.4171970850209251
 40
0.4171970850209251
 40
0.4171970850209251
 10
779.8009451340144
 20
1792.248961080847
 30
0.0
 10
779.7931536832343
 20
1792.246826869478
 30
0.0
 10
779.7853608547058
 20
1792.244699484476
 30
0.0
 10
779.7775666532052
 20
1792.242578934865
 30
0.0
  0
SPLINE
  5
23E
330
18C
100
AcDbEntity
  8
P-SANR-FIXT
100
AcDbSpline
210
0.0
220
0.0
230
1.0
 70
     8
 71
     3
 72
     8
 73
     4
 74
     0
 42
0.000000001
 43
0.0000000001
 40
0.4444444444444445
 40
0.4444444444444445
 40
0.4444444444444445
 40
0.4444444444444445
 40
0.445062800359581
 40
0.445062800359581
 40
0.445062800359581
 40
0.445062800359581
 10
778.5661906707101
 20
1791.971119109286
 30
0.0
 10
778.5569545232891
 20
1791.969493439799
 30
0.0
 10
778.5477168432922
 20
1791.967877689884
 30
0.0
 10
778.5384776013532
 20
1791.9662718358
 30
0.0
  0
SPLINE
  5
23F
330
18C
100
AcDbEntity
  8
P-SANR-FIXT
100
AcDbSpline
210
0.0
220
0.0
230
1.0
 70
     8
 71
     3
 72
     8
 73
     4
 74
     0
 42
0.000000001
 43
0.0000000001
 40
0.4722222222222224
 40
0.4722222222222224
 40
0.4722222222222224
 40
0.4722222222222224
 40
0.4728136492015669
 40
0.4728136492015669
 40
0.4728136492015669
 40
0.4728136492015669
 10
777.309532099062
 20
1791.809934556579
 30
0.0
 10
777.3005098017944
 20
1791.809186259051
 30
0.0
 10
777.2914848956331
 20
1791.808446060111
 30
0.0
 10
777.2824573548952
 20
1791.807713938998
 30
0.0
  0
SPLINE
  5
240
330
18C
100
AcDbEntity
  8
P-SANR-FIXT
100
AcDbSpline
210
0.0
220
0.0
230
1.0
 70
     8
 71
     3
 72
     8
 73
     4
 74
     0
 42
0.000000001
 43
0.0000000001
 40
0.5272777562417915
 40
0.5272777562417915
 40
0.5272777562417915
 40
0.5272777562417915
 40
0.5277777777777779
 40
0.5277777777777779
 40
0.5277777777777779
 40
0.5277777777777779
 10
774.757725123812
 20
1791.807603405152
 30
0.0
 10
774.7500662558953
 20
1791.808228839337
 30
0.0
 10
774.742409041507
 20
1791.808860156369
 30
0.0
 10
774.7347534943131
 20
1791.809497361618
 30
0.0
  0
SPLINE
  5
241
330
18C
100
AcDbEntity
  8
P-SANR-FIXT
100
AcDbSpline
210
0.0
220
0.0
230
1.0
 70
     8
 71
     3
 72
     8
 73
     4
 74
     0
 42
0.000000001
 43
0.0000000001
 40
0.5550253392149728
 40
0.5550253392149728
 40
0.5550253392149728
 40
0.5550253392149728
 40
0.5555555555555558
 40
0.5555555555555558
 40
0.5555555555555558
 40
0.5555555555555558
 10
773.5002012584548
 20
1791.966988103276
 30
0.0
 10
773.4923109374282
 20
1791.968361051082
 30
0.0
 10
773.4844226558822
 20
1791.969740941582
 30
0.0
 10
773.4765363743933
 20
1791.971127780472
 30
0.0
  0
SPLINE
  5
242
330
18C
100
AcDbEntity
  8
P-SANR-FIXT
100
AcDbSpline
210
0.0
220
0.0
230
1.0
 70
     8
 71
     3
 72
     8
 73
     4
 74
     0
 42
0.000000001
 43
0.0000000001
 40
0.5828776951229004
 40
0.5828776951229004
 40
0.5828776951229004
 40
0.5828776951229004
 40
0.5833333333333333
 40
0.5833333333333333
 40
0.5833333333333333
 40
0.5833333333333333
 10
772.2679300880722
 20
1792.241650365625
 30
0.0
 10
772.2612402963481
 20
1792.243470567562
 30
0.0
 10
772.2545504852702
 20
1792.24529612076
 30
0.0
 10
772.2478606245331
 20
1792.247127024478
 30
0.0
  0
SPLINE
  5
243
330
18C
100
AcDbEntity
  8
P-SANR-FIXT
100
AcDbSpline
210
0.0
220
0.0
230
1.0
 70
     8
 71
     3
 72
     8
 73
     4
 74
     0
 42
0.000000001
 43
0.0000000001
 40
0.6103474151282484
 40
0.6103474151282484
 40
0.6103474151282484
 40
0.6103474151282484
 40
0.6111111111111113
 40
0.6111111111111113
 40
0.6111111111111113
 40
0.6111111111111113
 10
771.0637109055853
 20
1792.626233385556
 30
0.0
 10
771.0526649963167
 20
1792.630281275266
 30
0.0
 10
771.0416239214087
 20
1792.634341793457
 30
0.0
 10
771.0305878262606
 20
1792.638414875742
 30
0.0
  0
SPLINE
  5
244
330
18C
100
AcDbEntity
  8
P-SANR-FIXT
100
AcDbSpline
210
0.0
220
0.0
230
1.0
 70
     8
 71
     3
 72
     8
 73
     4
 74
     0
 42
0.000000001
 43
0.0000000001
 40
0.6378747544213413
 40
0.6378747544213413
 40
0.6378747544213413
 40
0.6378747544213413
 40
0.6388888888888891
 40
0.6388888888888891
 40
0.6388888888888891
 40
0.6388888888888891
 10
769.8938100164541
 20
1793.110353542317
 30
0.0
 10
769.879800317322
 20
1793.116837841368
 30
0.0
 10
769.8658057128948
 20
1793.123340995581
 30
0.0
 10
769.8518263880572
 20
1793.129862875824
 30
0.0
  0
SPLINE
  5
245
330
18C
100
AcDbEntity
  8
P-SANR-FIXT
100
AcDbSpline
210
0.0
220
0.0
230
1.0
 70
     8
 71
     3
 72
     8
 73
     4
 74
     0
 42
0.000000001
 43
0.0000000001
 40
0.6659286360879165
 40
0.6659286360879165
 40
0.6659286360879165
 40
0.6659286360879165
 40
0.6666666666666669
 40
0.6666666666666669
 40
0.6666666666666669
 40
0.6666666666666669
 10
768.7688891924405
 20
1793.689883428118
 30
0.0
 10
768.7593537826543
 20
1793.695335145284
 30
0.0
 10
768.7498259525313
 20
1793.700797320373
 30
0.0
 10
768.740305615211
 20
1793.706270047656
 30
0.0
  0
LINE
  5
246
330
18C
100
AcDbEntity
  8
P-SANR-FIXT
100
AcDbLine
 10
791.9198244891624
 20
1771.245878730052
 30
0.0
 11
791.9198244891622
 21
1795.236837690137
 31
0.0
  0
LINE
  5
247
330
18C
100
AcDbEntity
  8
P-SANR-FIXT
100
AcDbLine
 10
791.9198244891622
 20
1825.263355782202
 30
0.0
 11
791.9198244891624
 21
1841.245878730052
 31
0.0
  0
LINE
  5
248
330
18C
100
AcDbEntity
  8
P-SANR-FIXT
100
AcDbLine
 10
794.0848879986234
 20
1767.495878730052
 30
0.0
 11
794.0848879986234
 21
1795.236714815756
 31
0.0
  0
LINE
  5
249
330
18C
100
AcDbEntity
  8
P-SANR-FIXT
100
AcDbLine
 10
794.0848879986234
 20
1817.255042644346
 30
0.0
 11
794.0848879986234
 21
1844.995878730052
 31
0.0
  0
SPLINE
  5
24A
330
18C
100
AcDbEntity
  8
P-SANR-FIXT
100
AcDbSpline
210
0.0
220
0.0
230
1.0
 70
     8
 71
     3
 72
    10
 73
     6
 74
     0
 42
0.000000001
 43
0.0000000001
 40
-1.0
 40
-1.0
 40
-1.0
 40
-1.0
 40
-0.6666666666666666
 40
-0.3333333333333333
 40
0.0
 40
0.0
 40
0.0
 40
0.0
 10
719.0937301431445
 20
1791.810083418611
 30
0.0
 10
719.424197726245
 20
1790.915759784231
 30
0.0
 10
720.173804864468
 20
1789.248832002007
 30
0.0
 10
721.5790428277127
 20
1787.037562356146
 30
0.0
 10
722.6734636274614
 20
1785.908203474828
 30
0.0
 10
723.2625414567061
 20
1785.417056516127
 30
0.0
  0
SPLINE
  5
24B
330
18C
100
AcDbEntity
  8
P-SANR-FIXT
100
AcDbSpline
210
0.0
220
0.0
230
1.0
 70
     8
 71
     3
 72
     9
 73
     5
 74
     0
 42
0.000000001
 43
0.0000000001
 40
-1.0
 40
-1.0
 40
-1.0
 40
-1.0
 40
-0.5
 40
0.0
 40
0.0
 40
0.0
 40
0.0
 10
723.2625414567061
 20
1785.417056516127
 30
0.0
 10
723.420369638115
 20
1785.288069108409
 30
0.0
 10
723.7404460801791
 20
1785.045356298091
 30
0.0
 10
724.0693626807354
 20
1784.833167498013
 30
0.0
 10
724.2360310206367
 20
1784.734704100533
 30
0.0
  0
SPLINE
  5
24C
330
18C
100
AcDbEntity
  8
P-SANR-FIXT
100
AcDbSpline
210
0.0
220
0.0
230
1.0
 70
     8
 71
     3
 72
     9
 73
     5
 74
     0
 42
0.000000001
 43
0.0000000001
 40
-1.0
 40
-1.0
 40
-1.0
 40
-1.0
 40
-0.5
 40
0.0
 40
0.0
 40
0.0
 40
0.0
 10
724.2360310206367
 20
1827.757053359571
 30
0.0
 10
724.0693626807354
 20
1827.658589962091
 30
0.0
 10
723.7404460801793
 20
1827.446401162013
 30
0.0
 10
723.420369638115
 20
1827.203688351696
 30
0.0
 10
723.2625414567061
 20
1827.074700943978
 30
0.0
  0
SPLINE
  5
24D
330
18C
100
AcDbEntity
  8
P-SANR-FIXT
100
AcDbSpline
210
0.0
220
0.0
230
1.0
 70
     8
 71
     3
 72
    10
 73
     6
 74
     0
 42
0.000000001
 43
0.0000000001
 40
-1.0
 40
-1.0
 40
-1.0
 40
-1.0
 40
-0.6666666666666666
 40
-0.3333333333333333
 40
0.0
 40
0.0
 40
0.0
 40
0.0
 10
723.2625414567061
 20
1827.074700943978
 30
0.0
 10
722.6734636274614
 20
1826.583553985276
 30
0.0
 10
721.5790428277127
 20
1825.454195103959
 30
0.0
 10
720.173804864468
 20
1823.242925458097
 30
0.0
 10
719.424197726245
 20
1821.575997675873
 30
0.0
 10
719.0937301431445
 20
1820.681674041493
 30
0.0
  0
LWPOLYLINE
  5
24E
330
18C
100
AcDbEntity
  8
P-SANR-FIXT
100
AcDbPolyline
 90
        4
 70
   128
 43
0.0
 10
716.4558281261506
 20
1806.245878730052
 10
716.7684681375491
 20
1801.224030199205
 10
717.6689456755353
 20
1796.393304682576
 10
719.0937301431445
 20
1791.810083418611
  0
LWPOLYLINE
  5
24F
330
18C
100
AcDbEntity
  8
P-SANR-FIXT
100
AcDbPolyline
 90
        4
 70
   128
 43
0.0
 10
719.0937301431445
 20
1820.681674041493
 10
717.6689456755353
 20
1816.098452777529
 10
716.7684681375491
 20
1811.267727260899
 10
716.4558281261506
 20
1806.245878730052
  0
ELLIPSE
  5
250
330
18C
100
AcDbEntity
  8
P-SANR-FIXT
100
AcDbEllipse
 10
641.4867546692666
 20
1806.245878730052
 30
0.0
 11
0.0000000000002525
 21
37.56549325048013
 31
0.0
210
0.0
220
0.0
230
1.0
 40
0.6427876096865456
 41
2.771650449881171
 42
3.141592653589797
  0
ELLIPSE
  5
251
330
18C
100
AcDbEntity
  8
P-SANR-FIXT
100
AcDbEllipse
 10
641.4867546692666
 20
1806.245878730052
 30
0.0
 11
0.0
 21
37.56549325048049
 31
0.0
210
0.0
220
0.0
230
1.0
 40
0.6427876096865394
 41
2.541330915477421
 42
2.704719361240712
  0
SPLINE
  5
252
330
18C
100
AcDbEntity
  8
P-SANR-FIXT
100
AcDbSpline
210
0.0
220
0.0
230
1.0
 70
     8
 71
     3
 72
    15
 73
    11
 74
     0
 42
0.000000001
 43
0.0000000001
 40
0.0
 40
0.0
 40
0.0
 40
0.0
 40
0.3333333333333333
 40
0.4166666666666666
 40
0.5
 40
0.5833333333333333
 40
0.6666666666666666
 40
0.75
 40
0.8333333333333332
 40
1.0
 40
1.0
 40
1.0
 40
1.0
 10
666.5339807677124
 20
1778.023359616344
 30
0.0
 10
666.4135378595886
 20
1777.664103638694
 30
0.0
 10
666.1815373373079
 20
1777.286203080169
 30
0.0
 10
665.7805461818064
 20
1776.914238925542
 30
0.0
 10
665.5561707533739
 20
1776.742358629312
 30
0.0
 10
665.3042075053483
 20
1776.592330465697
 30
0.0
 10
665.0212792289545
 20
1776.470682170507
 30
0.0
 10
664.7065999948404
 20
1776.377942236265
 30
0.0
 10
664.2475396798232
 20
1776.285286081732
 30
0.0
 10
663.8577228072781
 20
1776.252185838663
 30
0.0
 10
663.5776152728364
 20
1776.245878730052
 30
0.0
  0
ELLIPSE
  5
253
330
18C
100
AcDbEntity
  8
P-SANR-FIXT
100
AcDbEllipse
 10
641.4867546692666
 20
1806.245878730052
 30
0.0
 11
0.0
 21
37.5654932504804
 31
0.0
210
0.0
220
0.0
230
1.0
 40
0.6427876096865423
 41
0.4368732923490823
 42
0.6002617381123637
  0
ELLIPSE
  5
254
330
18C
100
AcDbEntity
  8
P-SANR-FIXT
100
AcDbEllipse
 10
641.4867546692666
 20
1806.245878730052
 30
0.0
 11
0.0
 21
37.5654932504803
 31
0.0
210
0.0
220
0.0
230
1.0
 40
0.6427876096865401
 41
0.0000000000000062
 42
0.369942203708614
  0
SPLINE
  5
255
330
18C
100
AcDbEntity
  8
P-SANR-FIXT
100
AcDbSpline
210
0.0
220
0.0
230
1.0
 70
     8
 71
     3
 72
    15
 73
    11
 74
     0
 42
0.000000001
 43
0.0000000001
 40
0.0
 40
0.0
 40
0.0
 40
0.0
 40
0.1666666666666666
 40
0.25
 40
0.3333333333333333
 40
0.4166666666666666
 40
0.5
 40
0.5833333333333333
 40
0.6666666666666666
 40
1.0
 40
1.0
 40
1.0
 40
1.0
 10
663.5776138711839
 20
1836.245878730052
 30
0.0
 10
663.8577215156052
 20
1836.239571613697
 30
0.0
 10
664.2475385302729
 20
1836.206471342972
 30
0.0
 10
664.7065989891051
 20
1836.113815117834
 30
0.0
 10
665.0212783092898
 20
1836.021075114874
 30
0.0
 10
665.3042066469037
 20
1835.899426728511
 30
0.0
 10
665.5561699324479
 20
1835.749398451697
 30
0.0
 10
665.7805453795267
 20
1835.577518027763
 30
0.0
 10
666.1815365450197
 20
1835.205553607068
 30
0.0
 10
666.4135370146418
 20
1834.827652794205
 30
0.0
 10
666.53397984102
 20
1834.46839657731
 30
0.0
  0
SPLINE
  5
256
330
18C
100
AcDbEntity
  8
P-SANR-FIXT
100
AcDbSpline
210
0.0
220
0.0
230
1.0
 70
     8
 71
     3
 72
     9
 73
     5
 74
     0
 42
0.000000001
 43
0.0000000001
 40
-1.0
 40
-1.0
 40
-1.0
 40
-1.0
 40
-0.5
 40
0.0
 40
0.0
 40
0.0
 40
0.0
 10
669.3886668325947
 20
1781.29993108219
 30
0.0
 10
669.1816307159129
 20
1780.610578052302
 30
0.0
 10
668.4733879785889
 20
1779.367102313267
 30
0.0
 10
667.2539774608078
 20
1778.421822977694
 30
0.0
 10
666.5339807677124
 20
1778.023359616344
 30
0.0
  0
ELLIPSE
  5
257
330
18C
100
AcDbEntity
  8
P-SANR-FIXT
100
AcDbEllipse
 10
682.4701323761315
 20
1806.245878730052
 30
0.0
 11
0.0
 21
37.56549325048009
 31
0.0
210
0.0
220
0.0
230
1.0
 40
0.6427876096865399
 41
2.420808432316404
 42
3.543103707784475
  0
ELLIPSE
  5
258
330
18C
100
AcDbEntity
  8
P-SANR-FIXT
100
AcDbEllipse
 10
682.4701323761315
 20
1806.245878730052
 30
0.0
 11
0.0
 21
37.5654932504804
 31
0.0
210
0.0
220
0.0
230
1.0
 40
0.6427876096865363
 41
5.881674254479897
 42
7.003969579535504
  0
SPLINE
  5
259
330
18C
100
AcDbEntity
  8
P-SANR-FIXT
100
AcDbSpline
210
0.0
220
0.0
230
1.0
 70
     8
 71
     3
 72
     9
 73
     5
 74
     0
 42
0.000000001
 43
0.0000000001
 40
-1.0
 40
-1.0
 40
-1.0
 40
-1.0
 40
-0.5
 40
0.0
 40
0.0
 40
0.0
 40
0.0
 10
666.5339798410199
 20
1834.46839657731
 30
0.0
 10
667.253976590729
 20
1834.069932895616
 30
0.0
 10
668.4733869586126
 20
1833.12465286437
 30
0.0
 10
669.18162901941
 20
1831.88117647116
 30
0.0
 10
669.3886646777863
 20
1831.191823162635
 30
0.0
  0
LWPOLYLINE
  5
25A
330
18C
100
AcDbEntity
  8
P-SANR-FIXT
100
AcDbPolyline
 90
        4
 70
   128
 43
0.0
 10
665.7937716827238
 20
1803.245878730052
 10
665.7850722558871
 20
1796.621952947818
 10
666.6344686647598
 20
1790.350700958955
 10
668.3121120756269
 20
1784.682025465564
  0
SPLINE
  5
25B
330
18C
100
AcDbEntity
  8
P-SANR-FIXT
100
AcDbSpline
210
0.0
220
0.0
230
1.0
 70
     8
 71
     3
 72
     9
 73
     5
 74
     0
 42
0.000000001
 43
0.0000000001
 40
0.0
 40
0.0
 40
0.0
 40
0.0
 40
0.5
 40
1.0
 40
1.0
 40
1.0
 40
1.0
 10
668.3121120756269
 20
1784.682025465564
 30
0.0
 10
668.5502490504769
 20
1784.066537188866
 30
0.0
 10
668.9703298001403
 20
1782.887702394405
 30
0.0
 10
669.270411618642
 20
1781.812271632746
 30
0.0
 10
669.3886668325949
 20
1781.29993108219
 30
0.0
  0
ELLIPSE
  5
25C
330
18C
100
AcDbEntity
  8
P-SANR-FIXT
100
AcDbEllipse
 10
684.7682657054885
 20
1806.245878730052
 30
0.0
 11
0.0
 21
34.56549325048004
 31
0.0
210
0.0
220
0.0
230
1.0
 40
0.6427876096865393
 41
2.377052731044778
 42
3.155498147491415
  0
ELLIPSE
  5
25D
330
18C
100
AcDbEntity
  8
P-SANR-FIXT
100
AcDbEllipse
 10
684.7682657054887
 20
1806.245878730052
 30
0.0
 11
0.0
 21
34.56549325048022
 31
0.0
210
0.0
220
0.0
230
1.0
 40
0.6427876096865408
 41
6.269279902865982
 42
7.047725364106635
  0
SPLINE
  5
25E
330
18C
100
AcDbEntity
  8
P-SANR-FIXT
100
AcDbSpline
210
0.0
220
0.0
230
1.0
 70
     8
 71
     3
 72
     9
 73
     5
 74
     0
 42
0.000000001
 43
0.0000000001
 40
0.0
 40
0.0
 40
0.0
 40
0.0
 40
0.5
 40
1.0
 40
1.0
 40
1.0
 40
1.0
 10
669.3886646777865
 20
1831.191823162635
 30
0.0
 10
669.270409394417
 20
1830.679482740621
 30
0.0
 10
668.9703274996831
 20
1829.604052292139
 30
0.0
 10
668.5502467867982
 20
1828.42521793212
 30
0.0
 10
668.3121098551615
 20
1827.809729904703
 30
0.0
  0
LWPOLYLINE
  5
25F
330
18C
100
AcDbEntity
  8
P-SANR-FIXT
100
AcDbPolyline
 90
        4
 70
   128
 43
0.0
 10
668.3121098551615
 20
1827.809729904704
 10
666.6344659864023
 20
1822.141054918501
 10
665.7850688149511
 20
1815.869803659313
 10
665.7937671967156
 20
1809.245878730052
  0
LINE
  5
260
330
18C
100
AcDbEntity
  8
P-SANR-FIXT
100
AcDbLine
 10
742.877355608384
 20
1798.98093308
 30
0.0
 11
742.8752236221889
 21
1798.965521942054
 31
0.0
  0
ELLIPSE
  5
261
330
18C
100
AcDbEntity
  8
P-SANR-FIXT
100
AcDbEllipse
 10
721.15537675364
 20
1806.245878730052
 30
0.0
 11
0.0
 21
34.56549325048005
 31
0.0
210
0.0
220
0.0
230
1.0
 40
0.6427876096865428
 41
1.65769742228381
 42
3.439600831175988
  0
ELLIPSE
  5
262
330
18C
100
AcDbEntity
  8
P-SANR-FIXT
100
AcDbEllipse
 10
721.15537675364
 20
1806.245878730052
 30
0.0
 11
0.0
 21
34.56549325048011
 31
0.0
210
0.0
220
0.0
230
1.0
 40
0.6427876096865419
 41
5.985177129593388
 42
7.767080538485573
  0
LINE
  5
263
330
18C
100
AcDbEntity
  8
P-SANR-FIXT
100
AcDbLine
 10
742.8752236221888
 20
1813.526235518051
 30
0.0
 11
742.8773556083839
 21
1813.510824380106
 31
0.0
  0
LWPOLYLINE
  5
264
330
18C
100
AcDbEntity
  8
P-SANR-FIXT
100
AcDbPolyline
 90
        3
 70
   128
 43
0.0
 10
701.9854428206261
 20
1806.245878730052
 10
702.0385105635011
 20
1804.744329690068
 10
702.197604299791
 20
1803.245878730052
  0
LINE
  5
265
330
18C
100
AcDbEntity
  8
P-SANR-FIXT
100
AcDbLine
 10
741.798869212708
 20
1798.377155255754
 30
0.0
 11
741.7936155961381
 21
1798.343871718726
 31
0.0
  0
ELLIPSE
  5
266
330
18C
100
AcDbEntity
  8
P-SANR-FIXT
100
AcDbEllipse
 10
721.15537675364
 20
1806.245878730052
 30
0.0
 11
0.0
 21
33.06549325048003
 31
0.0
210
0.0
220
0.0
230
1.0
 40
0.642787609686541
 41
1.661650292796985
 42
3.177897129733034
  0
ELLIPSE
  5
267
330
18C
100
AcDbEntity
  8
P-SANR-FIXT
100
AcDbEllipse
 10
721.15537675364
 20
1806.245878730052
 30
0.0
 11
0.0
 21
33.0654932504801
 31
0.0
210
0.0
220
0.0
230
1.0
 40
0.6427876096865426
 41
6.246880831036303
 42
7.763127667972397
  0
LINE
  5
268
330
18C
100
AcDbEntity
  8
P-SANR-FIXT
100
AcDbLine
 10
741.7936155961379
 20
1814.14788574138
 30
0.0
 11
741.798869212708
 21
1814.114602204351
 31
0.0
  0
LWPOLYLINE
  5
269
330
18C
100
AcDbEntity
  8
P-SANR-FIXT
100
AcDbPolyline
 90
        3
 70
   128
 43
0.0
 10
702.197604299791
 20
1809.245878730052
 10
702.0385105635011
 20
1807.747427770037
 10
701.9854428206261
 20
1806.245878730053
  0
SPLINE
  5
26A
330
18C
100
AcDbEntity
  8
P-SANR-FIXT
100
AcDbSpline
210
0.0
220
0.0
230
1.0
 70
     8
 71
     3
 72
    16
 73
    12
 74
     0
 42
0.000000001
 43
0.0000000001
 40
-1.0
 40
-1.0
 40
-1.0
 40
-1.0
 40
-0.85
 40
-0.775
 40
-0.7
 40
-0.625
 40
-0.55
 40
-0.4
 40
-0.3
 40
-0.2
 40
0.0
 40
0.0
 40
0.0
 40
0.0
 10
729.4378295747976
 20
1773.751532725538
 30
0.0
 10
729.4378295747976
 20
1773.859879347678
 30
0.0
 10
729.462349833425
 20
1774.056109464934
 30
0.0
 10
729.5309694648176
 20
1774.384541105763
 30
0.0
 10
729.5989637833797
 20
1774.666231944498
 30
0.0
 10
729.6786987404754
 20
1774.979787962535
 30
0.0
 10
729.7919966812962
 20
1775.439815351037
 30
0.0
 10
729.922233635545
 20
1776.00662982868
 30
0.0
 10
730.0422801913379
 20
1776.67862116751
 30
0.0
 10
730.1523598284309
 20
1777.492634188043
 30
0.0
 10
730.1879525202735
 20
1778.125372671284
 30
0.0
 10
730.18938697049
 20
1778.565166228524
 30
0.0
  0
SPLINE
  5
26B
330
18C
100
AcDbEntity
  8
P-SANR-FIXT
100
AcDbSpline
210
0.0
220
0.0
230
1.0
 70
     8
 71
     3
 72
    15
 73
    11
 74
     0
 42
0.000000001
 43
0.0000000001
 40
-1.0
 40
-1.0
 40
-1.0
 40
-1.0
 40
-0.85
 40
-0.775
 40
-0.7
 40
-0.55
 40
-0.475
 40
-0.4
 40
-0.2
 40
0.0
 40
0.0
 40
0.0
 40
0.0
 10
730.18938697049
 20
1833.92659123158
 30
0.0
 10
730.1883111328276
 20
1834.25643639951
 30
0.0
 10
730.1674636334046
 20
1834.738845215927
 30
0.0
 10
730.10499599014
 20
1835.354179506287
 30
0.0
 10
730.0192906667428
 20
1835.963559185048
 30
0.0
 10
729.9116690282925
 20
1836.526968812117
 30
0.0
 10
729.7930740161054
 20
1837.044378627041
 30
0.0
 10
729.6582572546088
 20
1837.598862604433
 30
0.0
 10
729.4944193164435
 20
1838.227743862752
 30
0.0
 10
729.4378295747976
 20
1838.595762571707
 30
0.0
 10
729.4378295747976
 20
1838.740224734557
 30
0.0
  0
LINE
  5
26C
330
18C
100
AcDbEntity
  8
P-SANR-FIXT
100
AcDbLine
 10
730.18938697049
 20
1778.565166228524
 30
0.0
 11
730.18938697049
 21
1780.785824282119
 31
0.0
  0
LINE
  5
26D
330
18C
100
AcDbEntity
  8
P-SANR-FIXT
100
AcDbLine
 10
730.18938697049
 20
1831.705933177986
 30
0.0
 11
730.18938697049
 21
1833.92659123158
 31
0.0
  0
LINE
  5
26E
330
18C
100
AcDbEntity
  8
P-SANR-FIXT
100
AcDbLine
 10
730.18938697049
 20
1780.785824282119
 30
0.0
 11
730.18938697049
 21
1782.509565113688
 31
0.0
  0
LINE
  5
26F
330
18C
100
AcDbEntity
  8
P-SANR-FIXT
100
AcDbLine
 10
730.18938697049
 20
1829.982192346417
 30
0.0
 11
730.18938697049
 21
1831.705933177986
 31
0.0
  0
SPLINE
  5
270
330
18C
100
AcDbEntity
  8
P-SANR-FIXT
100
AcDbSpline
210
0.0
220
0.0
230
1.0
 70
     8
 71
     3
 72
     8
 73
     4
 74
     0
 42
0.000000001
 43
0.0000000001
 40
0.0
 40
0.0
 40
0.0
 40
0.0
 40
0.0666666666666667
 40
0.0666666666666667
 40
0.0666666666666667
 40
0.0666666666666667
 10
652.5145076851877
 20
1784.682025465564
 30
0.0
 10
652.4727616582875
 20
1784.38971024611
 30
0.0
 10
652.4295172174456
 20
1784.102419863758
 30
0.0
 10
652.3856140469845
 20
1783.821037549145
 30
0.0
  0
SPLINE
  5
271
330
18C
100
AcDbEntity
  8
P-SANR-FIXT
100
AcDbSpline
210
0.0
220
0.0
230
1.0
 70
     8
 71
     3
 72
    22
 73
    18
 74
     0
 42
0.000000001
 43
0.0000000001
 40
0.0
 40
0.0
 40
0.0
 40
0.0
 40
0.125
 40
0.1875
 40
0.25
 40
0.3125
 40
0.375
 40
0.4375
 40
0.5
 40
0.53125
 40
0.5625
 40
0.625
 40
0.6875
 40
0.75
 40
0.8125
 40
0.875
 40
1.0
 40
1.0
 40
1.0
 40
1.0
 10
664.08066440033
 20
1803.245878730052
 30
0.0
 10
663.9510359973318
 20
1802.247930335785
 30
0.0
 10
663.6766475426447
 20
1800.79923385877
 30
0.0
 10
663.1480011642685
 20
1798.961938231906
 30
0.0
 10
662.6759256379175
 20
1797.635421455564
 30
0.0
 10
662.1050321283529
 20
1796.343139199455
 30
0.0
 10
661.4400327108789
 20
1795.088393610497
 30
0.0
 10
660.7127696839611
 20
1793.89562133842
 30
0.0
 10
660.0820798912113
 20
1792.971205656676
 30
0.0
 10
659.5638168525773
 20
1792.279465680679
 30
0.0
 10
659.0222932642442
 20
1791.612978093655
 30
0.0
 10
658.3156172658934
 20
1790.828220614372
 30
0.0
 10
657.4345496602648
 20
1789.958301572615
 30
0.0
 10
656.5435199054735
 20
1789.154162738337
 30
0.0
 10
655.6451471050967
 20
1788.414967045328
 30
0.0
 10
654.4171148913514
 20
1787.521674465419
 30
0.0
 10
653.4678543090246
 20
1786.953938248797
 30
0.0
 10
652.8218265534786
 20
1786.621062886833
 30
0.0
  0
LWPOLYLINE
  5
272
330
18C
100
AcDbEntity
  8
P-SANR-FIXT
100
AcDbPolyline
 90
        3
 70
   128
 43
0.0
 10
652.8218265534786
 20
1786.621062886833
 10
652.6681740899443
 20
1785.651543557361
 10
652.5145076851877
 20
1784.682025465564
  0
LWPOLYLINE
  5
273
330
18C
100
AcDbEntity
  8
P-SANR-FIXT
100
AcDbPolyline
 90
        3
 70
   128
 43
0.0
 10
652.5145080096055
 20
1827.809729904703
 10
652.6681742161104
 20
1826.840213064916
 10
652.8218264817387
 20
1825.87069498748
  0
SPLINE
  5
274
330
18C
100
AcDbEntity
  8
P-SANR-FIXT
100
AcDbSpline
210
0.0
220
0.0
230
1.0
 70
     8
 71
     3
 72
    21
 73
    17
 74
     0
 42
0.000000001
 43
0.0000000001
 40
0.0
 40
0.0
 40
0.0
 40
0.0
 40
0.2
 40
0.3
 40
0.4
 40
0.425
 40
0.45
 40
0.5
 40
0.55
 40
0.6
 40
0.65
 40
0.7
 40
0.8
 40
0.85
 40
0.9
 40
1.0
 40
1.0
 40
1.0
 40
1.0
 10
652.8218264817387
 20
1825.87069498748
 30
0.0
 10
653.8450022199281
 20
1825.332907576234
 30
0.0
 10
655.3309150565159
 20
1824.35433732875
 30
0.0
 10
657.2615491292931
 20
1822.728963886505
 30
0.0
 10
658.3029375904865
 20
1821.683013019118
 30
0.0
 10
658.9650071884515
 20
1820.920802960324
 30
0.0
 10
659.4049644044389
 20
1820.396986620423
 30
0.0
 10
659.9438639000266
 20
1819.712586669887
 30
0.0
 10
660.5636877797543
 20
1818.844060425627
 30
0.0
 10
661.1381851050269
 20
1817.932292245817
 30
0.0
 10
661.6771356953204
 20
1816.966314416001
 30
0.0
 10
662.3600385798068
 20
1815.606962647567
 30
0.0
 10
662.9451760222091
 20
1814.178581915453
 30
0.0
 10
663.3965558766964
 20
1812.716767035949
 30
0.0
 10
663.7786837543327
 20
1811.213286428016
 30
0.0
 10
663.9817687593577
 20
1810.044251611069
 30
0.0
 10
664.0806652978669
 20
1809.245878730052
 30
0.0
  0
SPLINE
  5
275
330
18C
100
AcDbEntity
  8
P-SANR-FIXT
100
AcDbSpline
210
0.0
220
0.0
230
1.0
 70
     8
 71
     3
 72
     8
 73
     4
 74
     0
 42
0.000000001
 43
0.0000000001
 40
0.9333333333333332
 40
0.9333333333333332
 40
0.9333333333333332
 40
0.9333333333333332
 40
1.0
 40
1.0
 40
1.0
 40
1.0
 10
652.3856146678667
 20
1828.670717912068
 30
0.0
 10
652.4295178436946
 20
1828.389335570086
 30
0.0
 10
652.4727619763918
 20
1828.10204514294
 30
0.0
 10
652.5145080096055
 20
1827.809729904703
 30
0.0
  0
SPLINE
  5
276
330
18C
100
AcDbEntity
  8
P-SANR-FIXT
100
AcDbSpline
210
0.0
220
0.0
230
1.0
 70
     8
 71
     3
 72
     8
 73
     4
 74
     0
 42
0.000000001
 43
0.0000000001
 40
0.7913234029927575
 40
0.7913234029927575
 40
0.7913234029927575
 40
0.7913234029927575
 40
0.7932597918899153
 40
0.7932597918899153
 40
0.7932597918899153
 40
0.7932597918899153
 10
622.3171046008344
 20
1796.900294772088
 30
0.0
 10
622.3146691830963
 20
1796.927707548542
 30
0.0
 10
622.3122315934284
 20
1796.955127010134
 30
0.0
 10
622.3097934621335
 20
1796.982554629486
 30
0.0
  0
SPLINE
  5
277
330
18C
100
AcDbEntity
  8
P-SANR-FIXT
100
AcDbSpline
210
0.0
220
0.0
230
1.0
 70
     8
 71
     3
 72
     8
 73
     4
 74
     0
 42
0.000000001
 43
0.0000000001
 40
0.2067402081101012
 40
0.2067402081101012
 40
0.2067402081101012
 40
0.2067402081101012
 40
0.2086764738397877
 40
0.2086764738397877
 40
0.2086764738397877
 40
0.2086764738397877
 10
622.3098275330611
 20
1815.509169037479
 30
0.0
 10
622.3122433455115
 20
1815.536616895305
 30
0.0
 10
622.314668873692
 20
1815.564046463586
 30
0.0
 10
622.3171041337447
 20
1815.591457576466
 30
0.0
  0
SPLINE
  5
278
330
18C
100
AcDbEntity
  8
P-SANR-FIXT
100
AcDbSpline
210
0.0
220
0.0
230
1.0
 70
     8
 71
     3
 72
     9
 73
     5
 74
     0
 42
0.000000001
 43
0.0000000001
 40
0.0
 40
0.0
 40
0.0
 40
0.0
 40
0.5
 40
1.0
 40
1.0
 40
1.0
 40
1.0
 10
622.6080763894563
 20
1806.245878730052
 30
0.0
 10
622.6068248659251
 20
1804.778322203628
 30
0.0
 10
622.5118576525126
 20
1801.849084363094
 30
0.0
 10
622.2319621063999
 20
1798.931596947186
 30
0.0
 10
622.0457822501685
 20
1797.475790845389
 30
0.0
  0
SPLINE
  5
279
330
18C
100
AcDbEntity
  8
P-SANR-FIXT
100
AcDbSpline
210
0.0
220
0.0
230
1.0
 70
     8
 71
     3
 72
     9
 73
     5
 74
     0
 42
0.000000001
 43
0.0000000001
 40
0.0
 40
0.0
 40
0.0
 40
0.0
 40
0.5
 40
1.0
 40
1.0
 40
1.0
 40
1.0
 10
622.0457822501685
 20
1815.015966614715
 30
0.0
 10
622.2319621063998
 20
1813.560160512918
 30
0.0
 10
622.5118576525126
 20
1810.64267309701
 30
0.0
 10
622.6068248659251
 20
1807.713435256476
 30
0.0
 10
622.6080763894563
 20
1806.245878730052
 30
0.0
  0
ARC
  5
27A
330
18C
100
AcDbEntity
  8
P-SANR-FIXT
100
AcDbCircle
 10
640.0203631491847
 20
1806.245878730052
 30
0.0
 40
19.9999999999998
100
AcDbArc
 50
206.0084944846598
 51
0.0
  0
SPLINE
  5
27B
330
18C
100
AcDbEntity
  8
P-SANR-FIXT
100
AcDbSpline
210
0.0
220
0.0
230
1.0
 70
     8
 71
     3
 72
    11
 73
     7
 74
     0
 42
0.000000001
 43
0.0000000001
 40
0.0
 40
0.0
 40
0.0
 40
0.0
 40
0.3333333333333333
 40
0.5
 40
0.6666666666666666
 40
1.0
 40
1.0
 40
1.0
 40
1.0
 10
622.0457822501685
 20
1797.475790845389
 30
0.0
 10
622.5369510160686
 20
1796.224913311341
 30
0.0
 10
623.3933777679633
 20
1794.543518971308
 30
0.0
 10
624.5758029242826
 20
1792.689684472831
 30
0.0
 10
625.7668878614619
 20
1791.050833687242
 30
0.0
 10
626.6650408910538
 20
1790.025580167457
 30
0.0
 10
627.2268785429731
 20
1789.424161401082
 30
0.0
  0
SPLINE
  5
27C
330
18C
100
AcDbEntity
  8
P-SANR-FIXT
100
AcDbSpline
210
0.0
220
0.0
230
1.0
 70
     8
 71
     3
 72
    21
 73
    17
 74
     0
 42
0.000000001
 43
0.0000000001
 40
-1.0
 40
-1.0
 40
-1.0
 40
-1.0
 40
-0.85
 40
-0.8125
 40
-0.775
 40
-0.7
 40
-0.625
 40
-0.60625
 40
-0.5875
 40
-0.55
 40
-0.475
 40
-0.4
 40
-0.3
 40
-0.2
 40
-0.1
 40
0.0
 40
0.0
 40
0.0
 40
0.0
 10
627.2268785429731
 20
1789.424161401082
 30
0.0
 10
628.1790789051468
 20
1788.61826678494
 30
0.0
 10
629.4498241743305
 20
1787.75256663753
 30
0.0
 10
631.0945598972048
 20
1786.903760863204
 30
0.0
 10
632.2244494055024
 20
1786.38450881463
 30
0.0
 10
633.7141748084827
 20
1785.796030791383
 30
0.0
 10
635.1127839036017
 20
1785.391702750197
 30
0.0
 10
636.0567355651641
 20
1785.190709424018
 30
0.0
 10
636.6890445595871
 20
1785.075928693723
 30
0.0
 10
637.8263845894504
 20
1784.909264499242
 30
0.0
 10
639.50582020622
 20
1784.780565971876
 30
0.0
 10
641.7025725007238
 20
1784.81059125697
 30
0.0
 10
644.0825418747225
 20
1785.169477122994
 30
0.0
 10
646.5941276226442
 20
1785.865963768753
 30
0.0
 10
648.8890594263714
 20
1786.798550361323
 30
0.0
 10
650.3280589117811
 20
1787.634965826543
 30
0.0
 10
651.0203631491847
 20
1788.108249498876
 30
0.0
  0
SPLINE
  5
27D
330
18C
100
AcDbEntity
  8
P-SANR-FIXT
100
AcDbSpline
210
0.0
220
0.0
230
1.0
 70
     8
 71
     3
 72
     9
 73
     5
 74
     0
 42
0.000000001
 43
0.0000000001
 40
0.0
 40
0.0
 40
0.0
 40
0.0
 40
0.5
 40
1.0
 40
1.0
 40
1.0
 40
1.0
 10
651.0203631491847
 20
1788.108249498876
 30
0.0
 10
651.6224959720722
 20
1788.038385469888
 30
0.0
 10
652.543331040542
 20
1787.763062482925
 30
0.0
 10
652.849076361748
 20
1787.077599073853
 30
0.0
 10
652.8218265534786
 20
1786.621062886833
 30
0.0
  0
ARC
  5
27E
330
18C
100
AcDbEntity
  8
P-SANR-FIXT
100
AcDbCircle
 10
640.0203631491847
 20
1806.245878730052
 30
0.0
 40
21.92475059757025
100
AcDbArc
 50
352.1354507755591
 51
359.9999776815159
  0
ARC
  5
27F
330
18C
100
AcDbEntity
  8
P-SANR-FIXT
100
AcDbCircle
 10
640.0203631491847
 20
1806.245878730052
 30
0.0
 40
19.99999999999988
100
AcDbArc
 50
0.0
 51
153.9915055153393
  0
ARC
  5
280
330
18C
100
AcDbEntity
  8
P-SANR-FIXT
100
AcDbCircle
 10
640.0203631491847
 20
1806.245878730052
 30
0.0
 40
21.92475059757035
100
AcDbArc
 50
359.9999776815169
 51
7.864549224441456
  0
SPLINE
  5
281
330
18C
100
AcDbEntity
  8
P-SANR-FIXT
100
AcDbSpline
210
0.0
220
0.0
230
1.0
 70
     8
 71
     3
 72
     9
 73
     5
 74
     0
 42
0.000000001
 43
0.0000000001
 40
0.0
 40
0.0
 40
0.0
 40
0.0
 40
0.5
 40
1.0
 40
1.0
 40
1.0
 40
1.0
 10
652.8218264817387
 20
1825.87069498748
 30
0.0
 10
652.8490764258302
 20
1825.41415864787
 30
0.0
 10
652.543331230706
 20
1824.728695018291
 30
0.0
 10
651.622496068197
 20
1824.453371985311
 30
0.0
 10
651.0203631491847
 20
1824.383507961229
 30
0.0
  0
SPLINE
  5
282
330
18C
100
AcDbEntity
  8
P-SANR-FIXT
100
AcDbSpline
210
0.0
220
0.0
230
1.0
 70
     8
 71
     3
 72
    19
 73
    15
 74
     0
 42
0.000000001
 43
0.0000000001
 40
-1.0
 40
-1.0
 40
-1.0
 40
-1.0
 40
-0.9
 40
-0.8
 40
-0.7000000000000001
 40
-0.6000000000000001
 40
-0.5
 40
-0.4
 40
-0.35
 40
-0.3
 40
-0.25
 40
-0.2
 40
-0.1
 40
0.0
 40
0.0
 40
0.0
 40
0.0
 10
651.0203631491847
 20
1824.383507961229
 30
0.0
 10
650.3280589117811
 20
1824.856791633562
 30
0.0
 10
648.8889764472599
 20
1825.693213306126
 30
0.0
 10
646.5944180495342
 20
1826.625771965644
 30
0.0
 10
644.0814631462735
 20
1827.322361032593
 30
0.0
 10
641.4902361354484
 20
1827.713491134731
 30
0.0
 10
638.8294078863578
 20
1827.700162989376
 30
0.0
 10
636.6228312431287
 20
1827.437573941032
 30
0.0
 10
634.95755172436
 20
1827.059044678561
 30
0.0
 10
633.7208946921458
 20
1826.680032973541
 30
0.0
 10
632.5210600012022
 20
1826.228113866621
 30
0.0
 10
630.986591333794
 20
1825.557041978777
 30
0.0
 10
629.1894343875782
 20
1824.580130561618
 30
0.0
 10
627.8616787844222
 20
1823.604859136451
 30
0.0
 10
627.2268785429731
 20
1823.067596059023
 30
0.0
  0
SPLINE
  5
283
330
18C
100
AcDbEntity
  8
P-SANR-FIXT
100
AcDbSpline
210
0.0
220
0.0
230
1.0
 70
     8
 71
     3
 72
    11
 73
     7
 74
     0
 42
0.000000001
 43
0.0000000001
 40
0.0
 40
0.0
 40
0.0
 40
0.0
 40
0.3333333333333333
 40
0.5
 40
0.6666666666666666
 40
1.0
 40
1.0
 40
1.0
 40
1.0
 10
627.2268785429731
 20
1823.067596059023
 30
0.0
 10
626.6650408910538
 20
1822.466177292647
 30
0.0
 10
625.7668878614619
 20
1821.440923772862
 30
0.0
 10
624.5758029242826
 20
1819.802072987274
 30
0.0
 10
623.3933777679632
 20
1817.948238488796
 30
0.0
 10
622.5369510160686
 20
1816.266844148763
 30
0.0
 10
622.0457822501685
 20
1815.015966614715
 30
0.0
  0
LINE
  5
284
330
18C
100
AcDbEntity
  8
P-SANR-FIXT
100
AcDbLine
 10
621.0203631491847
 20
1764.495878730052
 30
0.0
 11
621.0203631491847
 21
1806.245878730052
 31
0.0
  0
LINE
  5
285
330
18C
100
AcDbEntity
  8
P-SANR-FIXT
100
AcDbLine
 10
621.0203631491847
 20
1806.245878730052
 30
0.0
 11
621.0203631491847
 21
1847.995878730052
 31
0.0
  0
LINE
  5
286
330
18C
100
AcDbEntity
  8
P-SANR-FIXT
100
AcDbLine
 10
627.2268785429731
 20
1775.256574765961
 30
0.0
 11
627.2268785429731
 21
1789.424161401082
 31
0.0
  0
SPLINE
  5
287
330
18C
100
AcDbEntity
  8
P-SANR-FIXT
100
AcDbSpline
210
0.0
220
0.0
230
1.0
 70
     8
 71
     3
 72
    23
 73
    19
 74
     0
 42
0.000000001
 43
0.0000000001
 40
0.0
 40
0.0
 40
0.0
 40
0.0
 40
0.0555555555555556
 40
0.1111111111111111
 40
0.1666666666666666
 40
0.2222222222222222
 40
0.2777777777777778
 40
0.3333333333333333
 40
0.3888888888888888
 40
0.4444444444444445
 40
0.5138888888888889
 40
0.5486111111111111
 40
0.5833333333333333
 40
0.6527777777777777
 40
0.7222222222222223
 40
0.7916666666666668
 40
0.861111111111111
 40
1.0
 40
1.0
 40
1.0
 40
1.0
 10
631.2703631491847
 20
1775.245878730052
 30
0.0
 10
631.2767689060724
 20
1775.245878730052
 30
0.0
 10
631.3730530896109
 20
1775.27341386071
 30
0.0
 10
631.7559897325044
 20
1775.38146780199
 30
0.0
 10
632.4131596680916
 20
1775.550559412551
 30
0.0
 10
633.2832145454021
 20
1775.75841003654
 30
0.0
 10
634.3669177199362
 20
1775.979801302304
 30
0.0
 10
635.6112610685059
 20
1776.191624676117
 30
0.0
 10
637.0043372227643
 20
1776.363373365156
 30
0.0
 10
638.6064456355203
 20
1776.49029367583
 30
0.0
 10
640.0876910847919
 20
1776.516301651003
 30
0.0
 10
641.3656939013495
 20
1776.48122563
 30
0.0
 10
642.5944655551502
 20
1776.405338003209
 30
0.0
 10
644.1165585744535
 20
1776.241648941809
 30
0.0
 10
645.687523820532
 20
1775.981471831127
 30
0.0
 10
647.0059194363527
 20
1775.704078028806
 30
0.0
 10
648.3502799655298
 20
1775.370426120578
 30
0.0
 10
648.7546783530683
 20
1775.245878730052
 30
0.0
 10
648.7703631491847
 20
1775.245878730052
 30
0.0
  0
LINE
  5
288
330
18C
100
AcDbEntity
  8
P-SANR-FIXT
100
AcDbLine
 10
627.2268785429733
 20
1823.067596059023
 30
0.0
 11
627.2268785429733
 21
1837.235182694144
 31
0.0
  0
SPLINE
  5
289
330
18C
100
AcDbEntity
  8
P-SANR-FIXT
100
AcDbSpline
210
0.0
220
0.0
230
1.0
 70
     8
 71
     3
 72
    23
 73
    19
 74
     0
 42
0.000000001
 43
0.0000000001
 40
0.0
 40
0.0
 40
0.0
 40
0.0
 40
0.0555555555555556
 40
0.1111111111111111
 40
0.1666666666666666
 40
0.2222222222222222
 40
0.2777777777777778
 40
0.3333333333333333
 40
0.3888888888888888
 40
0.4444444444444445
 40
0.5138888888888889
 40
0.5486111111111111
 40
0.5833333333333333
 40
0.6527777777777777
 40
0.7222222222222223
 40
0.7916666666666668
 40
0.861111111111111
 40
1.0
 40
1.0
 40
1.0
 40
1.0
 10
648.7703631491847
 20
1837.245878730052
 30
0.0
 10
648.7640892307382
 20
1837.245878730052
 30
0.0
 10
648.6678660022622
 20
1837.218343771351
 30
0.0
 10
648.2847290557371
 20
1837.110267232451
 30
0.0
 10
647.6261177925886
 20
1836.940945006999
 30
0.0
 10
646.7546181344983
 20
1836.732713667022
 30
0.0
 10
645.6721951834403
 20
1836.511527205976
 30
0.0
 10
644.4291744246752
 20
1836.300107974575
 30
0.0
 10
643.0350042396996
 20
1836.128305393904
 30
0.0
 10
641.4317521755133
 20
1836.001302084894
 30
0.0
 10
639.9505233542732
 20
1835.975469010823
 30
0.0
 10
638.6726568185937
 20
1836.010653389349
 30
0.0
 10
637.4444015173996
 20
1836.086546783643
 30
0.0
 10
635.9240075809691
 20
1836.250067876995
 30
0.0
 10
634.3515817088772
 20
1836.510735732021
 30
0.0
 10
633.0318120771748
 20
1836.788294033672
 30
0.0
 10
631.69087712311
 20
1837.121214212601
 30
0.0
 10
631.2863775414041
 20
1837.245878730052
 30
0.0
 10
631.2703631491847
 20
1837.245878730052
 30
0.0
  0
LINE
  5
28A
330
18C
100
AcDbEntity
  8
P-SANR-FIXT
100
AcDbLine
 10
651.0203631491847
 20
1775.25796014736
 30
0.0
 11
651.0203631491847
 21
1788.108249498876
 31
0.0
  0
LINE
  5
28B
330
18C
100
AcDbEntity
  8
P-SANR-FIXT
100
AcDbLine
 10
651.0203631491847
 20
1824.383507961228
 30
0.0
 11
651.0203631491847
 21
1837.233797287813
 31
0.0
  0
LINE
  5
28C
330
18C
100
AcDbEntity
  8
P-SANR-FIXT
100
AcDbLine
 10
702.197604299791
 20
1809.245878730052
 30
0.0
 11
661.7388964506221
 21
1809.245878730052
 31
0.0
  0
LINE
  5
28D
330
18C
100
AcDbEntity
  8
P-SANR-FIXT
100
AcDbLine
 10
661.7388964506223
 20
1803.245878730052
 30
0.0
 11
702.197604299791
 21
1803.245878730052
 31
0.0
  0
LINE
  5
28E
330
18C
100
AcDbEntity
  8
P-SANR-FIXT
100
AcDbLine
 10
729.4378295747976
 20
1771.245878730052
 30
0.0
 11
746.9378295748015
 21
1771.245878730052
 31
0.0
  0
LINE
  5
28F
330
18C
100
AcDbEntity
  8
P-SANR-FIXT
100
AcDbLine
 10
746.9378295748015
 20
1841.245878730052
 30
0.0
 11
729.4378295747976
 21
1841.245878730052
 31
0.0
  0
LINE
  5
290
330
18C
100
AcDbEntity
  8
P-SANR-FIXT
100
AcDbLine
 10
631.2703631491847
 20
1841.245878730052
 30
0.0
 11
648.7703631491847
 21
1841.245878730052
 31
0.0
  0
LINE
  5
291
330
18C
100
AcDbEntity
  8
P-SANR-FIXT
100
AcDbLine
 10
648.7703631491847
 20
1771.245878730052
 30
0.0
 11
631.2703631491847
 21
1771.245878730052
 31
0.0
  0
ARC
  5
292
330
18C
100
AcDbEntity
  8
P-SANR-FIXT
100
AcDbCircle
 10
776.0203631491846
 20
1806.245878730052
 30
0.0
 40
14.49999999999995
100
AcDbArc
 50
229.3702029211607
 51
310.6297970788395
  0
ARC
  5
293
330
18C
100
AcDbEntity
  8
P-SANR-FIXT
100
AcDbCircle
 10
738.0203631491872
 20
1806.245878730052
 30
0.0
 40
8.749999999999886
100
AcDbArc
 50
180.0
 51
0.0
  0
ARC
  5
294
330
18C
100
AcDbEntity
  8
P-SANR-FIXT
100
AcDbCircle
 10
738.0203631491872
 20
1806.245878730052
 30
0.0
 40
8.75
100
AcDbArc
 50
0.0
 51
180.0
  0
LINE
  5
295
330
18C
100
AcDbEntity
  8
P-SANR-FIXT
100
AcDbLine
 10
803.0203631491847
 20
1767.745878730052
 30
0.0
 11
803.0203631491847
 21
1795.236394105468
 31
0.0
  0
LINE
  5
296
330
18C
100
AcDbEntity
  8
P-SANR-FIXT
100
AcDbLine
 10
803.0203631491847
 20
1817.255363354634
 30
0.0
 11
803.0203631491847
 21
1844.745878730052
 31
0.0
  0
ENDBLK
  5
298
330
18C
100
AcDbEntity
  8
0
100
AcDbBlockEnd
  0
BLOCK
  5
2E5
330
29A
100
AcDbEntity
  8
0
100
AcDbBlockBegin
  2
Automatic flow rate regulator valve_Caleffi_121 DN15 - 1_2__-V2-Est - Idraulica
 70
     0
 10
0.0
 20
0.0
 30
0.0
  3
Automatic flow rate regulator valve_Caleffi_121 DN15 - 1_2__-V2-Est - Idraulica
  1

  0
LINE
  5
29B
330
29A
100
AcDbEntity
  8
M-PIPE
100
AcDbLine
 10
1078.114353943098
 20
2086.982558850009
 30
0.0
 11
1078.114353943098
 21
2069.982558850041
 31
0.0
1001
REVIT
1002
{
1070
     3
1000
856288
1002
}
  0
LINE
  5
29C
330
29A
100
AcDbEntity
  8
M-PIPE
100
AcDbLine
 10
1078.114353943098
 20
2069.982558850041
 30
0.0
 11
1078.114353943098
 21
2066.982558850041
 31
0.0
1001
REVIT
1002
{
1070
     3
1000
856288
1002
}
  0
LINE
  5
29D
330
29A
100
AcDbEntity
  8
M-PIPE
100
AcDbLine
 10
1056.114353943098
 20
2069.982558850041
 30
0.0
 11
1056.114353943098
 21
2086.982558850009
 31
0.0
1001
REVIT
1002
{
1070
     3
1000
856288
1002
}
  0
LINE
  5
29E
330
29A
100
AcDbEntity
  8
M-PIPE
100
AcDbLine
 10
1056.114353943098
 20
2086.982558850009
 30
0.0
 11
1078.114353943098
 21
2086.982558850009
 31
0.0
1001
REVIT
1002
{
1070
     3
1000
856288
1002
}
  0
LINE
  5
29F
330
29A
100
AcDbEntity
  8
M-PIPE
100
AcDbLine
 10
1048.114353943098
 20
2069.982558850041
 30
0.0
 11
1062.114353943098
 21
2069.982558850041
 31
0.0
1001
REVIT
1002
{
1070
     3
1000
856288
1002
}
  0
LINE
  5
2A0
330
29A
100
AcDbEntity
  8
M-PIPE
100
AcDbLine
 10
1062.114353943098
 20
2069.982558850041
 30
0.0
 11
1078.114353943098
 21
2069.982558850041
 31
0.0
1001
REVIT
1002
{
1070
     3
1000
856288
1002
}
  0
LINE
  5
2A1
330
29A
100
AcDbEntity
  8
M-PIPE
100
AcDbLine
 10
1062.114353943098
 20
2069.982558850028
 30
0.0
 11
1062.114353943098
 21
2066.982558850028
 31
0.0
1001
REVIT
1002
{
1070
     3
1000
856288
1002
}
  0
LINE
  5
2A2
330
29A
100
AcDbEntity
  8
M-PIPE
100
AcDbLine
 10
1062.114353943098
 20
2066.982558850041
 30
0.0
 11
1078.114353943098
 21
2066.982558850041
 31
0.0
1001
REVIT
1002
{
1070
     3
1000
856288
1002
}
  0
LINE
  5
2A3
330
29A
100
AcDbEntity
  8
M-PIPE
100
AcDbLine
 10
1062.114353943098
 20
2066.982558850041
 30
0.0
 11
1048.114353943098
 21
2066.982558850041
 31
0.0
1001
REVIT
1002
{
1070
     3
1000
856288
1002
}
  0
LINE
  5
2A4
330
29A
100
AcDbEntity
  8
M-PIPE
100
AcDbLine
 10
1048.114353943098
 20
2066.982558850009
 30
0.0
 11
1048.114353943098
 21
2069.982558850041
 31
0.0
1001
REVIT
1002
{
1070
     3
1000
856288
1002
}
  0
ARC
  5
2A5
330
29A
100
AcDbEntity
  8
M-PIPE
100
AcDbCircle
 10
1067.114353943096
 20
1999.982558850067
 30
0.0
 40
45.00000000001648
100
AcDbArc
 50
89.99999999999971
 51
119.9999999999989
1001
REVIT
1002
{
1070
     3
1000
790271
1002
}
  0
ARC
  5
2A6
330
29A
100
AcDbEntity
  8
M-PIPE
100
AcDbCircle
 10
1067.114353943096
 20
1999.982558850067
 30
0.0
 40
45.00000000001647
100
AcDbArc
 50
119.9999999999982
 51
179.9999999999971
1001
REVIT
1002
{
1070
     3
1000
790271
1002
}
  0
ARC
  5
2A7
330
29A
100
AcDbEntity
  8
M-PIPE
100
AcDbCircle
 10
1067.114353943096
 20
1999.982558850067
 30
0.0
 40
45.00000000001666
100
AcDbArc
 50
179.9999999999969
 51
239.9999999999966
1001
REVIT
1002
{
1070
     3
1000
790271
1002
}
  0
ARC
  5
2A8
330
29A
100
AcDbEntity
  8
M-PIPE
100
AcDbCircle
 10
1067.114353943096
 20
1999.982558850067
 30
0.0
 40
45.0000000000166
100
AcDbArc
 50
239.9999999999965
 51
269.9999999999993
1001
REVIT
1002
{
1070
     3
1000
790271
1002
}
  0
ARC
  5
2A9
330
29A
100
AcDbEntity
  8
M-PIPE
100
AcDbCircle
 10
1067.114353943096
 20
1999.982558850067
 30
0.0
 40
45.00000000001648
100
AcDbArc
 50
270.0000000000003
 51
299.9999999999985
1001
REVIT
1002
{
1070
     3
1000
790271
1002
}
  0
ARC
  5
2AA
330
29A
100
AcDbEntity
  8
M-PIPE
100
AcDbCircle
 10
1067.114353943096
 20
1999.982558850067
 30
0.0
 40
45.00000000001669
100
AcDbArc
 50
299.9999999999983
 51
0.0
1001
REVIT
1002
{
1070
     3
1000
790271
1002
}
  0
ARC
  5
2AB
330
29A
100
AcDbEntity
  8
M-PIPE
100
AcDbCircle
 10
1067.114353943096
 20
1999.982558850067
 30
0.0
 40
45.0000000000166
100
AcDbArc
 50
0.0
 51
60.00000000000046
1001
REVIT
1002
{
1070
     3
1000
790271
1002
}
  0
ARC
  5
2AC
330
29A
100
AcDbEntity
  8
M-PIPE
100
AcDbCircle
 10
1067.114353943096
 20
1999.982558850067
 30
0.0
 40
45.00000000001653
100
AcDbArc
 50
60.00000000000052
 51
89.99999999999971
1001
REVIT
1002
{
1070
     3
1000
790271
1002
}
  0
ARC
  5
2AD
330
29A
100
AcDbEntity
  8
M-PIPE
100
AcDbCircle
 10
1067.114353943108
 20
1999.982558850051
 30
0.0
 40
48.49999999999988
100
AcDbArc
 50
90.00000000001531
 51
98.09981530373768
1001
REVIT
1002
{
1070
     3
1000
790271
1002
}
  0
ARC
  5
2AE
330
29A
100
AcDbEntity
  8
M-PIPE
100
AcDbCircle
 10
1067.114353943108
 20
1999.982558850051
 30
0.0
 40
48.5
100
AcDbArc
 50
81.90018469626098
 51
90.00000000001504
1001
REVIT
1002
{
1070
     3
1000
790271
1002
}
  0
SPLINE
  5
2AF
330
29A
100
AcDbEntity
  8
M-PIPE
100
AcDbSpline
210
0.0
220
0.0
230
1.0
 70
    24
 71
     3
 72
     9
 73
     5
 74
     0
 42
0.000000001
 43
0.0000000001
 40
0.0
 40
0.0
 40
0.0
 40
0.0
 40
0.5
 40
1.0
 40
1.0
 40
1.0
 40
1.0
 10
1028.947908909216
 20
2029.908675762789
 30
0.0
 10
1031.551311905823
 20
2031.411751183689
 30
0.0
 10
1036.765789074745
 20
2034.422330980849
 30
0.0
 10
1041.995608595083
 20
2037.441768688729
 30
0.0
 10
1044.614353943107
 20
2038.95370202035
 30
0.0
1001
REVIT
1002
{
1070
     3
1000
790271
1002
}
  0
SPLINE
  5
2B0
330
29A
100
AcDbEntity
  8
M-PIPE
100
AcDbSpline
210
0.0
220
0.0
230
1.0
 70
    24
 71
     3
 72
     9
 73
     5
 74
     0
 42
0.000000001
 43
0.0000000001
 40
0.0
 40
0.0
 40
0.0
 40
0.0
 40
0.5
 40
1.0
 40
1.0
 40
1.0
 40
1.0
 10
1044.614353943107
 20
2038.95370202035
 30
0.0
 10
1047.233099291131
 20
2040.465635351971
 30
0.0
 10
1052.462918811472
 20
2043.485073059852
 30
0.0
 10
1057.677395980395
 20
2046.495652857013
 30
0.0
 10
1060.280798977003
 20
2047.998728277914
 30
0.0
1001
REVIT
1002
{
1070
     3
1000
790271
1002
}
  0
ARC
  5
2B1
330
29A
100
AcDbEntity
  8
M-PIPE
100
AcDbCircle
 10
1067.114353943108
 20
1999.982558850051
 30
0.0
 40
48.49999999999994
100
AcDbArc
 50
141.9001846962611
 51
158.0998153037372
1001
REVIT
1002
{
1070
     3
1000
790271
1002
}
  0
SPLINE
  5
2B2
330
29A
100
AcDbEntity
  8
M-PIPE
100
AcDbSpline
210
0.0
220
0.0
230
1.0
 70
    24
 71
     3
 72
     9
 73
     5
 74
     0
 42
0.000000001
 43
0.0000000001
 40
0.0
 40
0.0
 40
0.0
 40
0.0
 40
0.5
 40
1.0
 40
1.0
 40
1.0
 40
1.0
 10
1022.114353943108
 20
1981.892506334927
 30
0.0
 10
1022.114353943108
 20
1984.89865717673
 30
0.0
 10
1022.114353943108
 20
1990.919816771057
 30
0.0
 10
1022.114353943108
 20
1996.958692186825
 30
0.0
 10
1022.114353943109
 20
1999.982558850069
 30
0.0
1001
REVIT
1002
{
1070
     3
1000
790271
1002
}
  0
SPLINE
  5
2B3
330
29A
100
AcDbEntity
  8
M-PIPE
100
AcDbSpline
210
0.0
220
0.0
230
1.0
 70
    24
 71
     3
 72
     9
 73
     5
 74
     0
 42
0.000000001
 43
0.0000000001
 40
0.0
 40
0.0
 40
0.0
 40
0.0
 40
0.5
 40
1.0
 40
1.0
 40
1.0
 40
1.0
 10
1022.114353943109
 20
1999.982558850069
 30
0.0
 10
1022.114353943109
 20
2003.006425513308
 30
0.0
 10
1022.114353943109
 20
2009.045300929064
 30
0.0
 10
1022.114353943109
 20
2015.06646052338
 30
0.0
 10
1022.114353943109
 20
2018.072611365178
 30
0.0
1001
REVIT
1002
{
1070
     3
1000
790271
1002
}
  0
ARC
  5
2B4
330
29A
100
AcDbEntity
  8
M-PIPE
100
AcDbCircle
 10
1067.114353943108
 20
1999.982558850051
 30
0.0
 40
48.50000000000002
100
AcDbArc
 50
201.9001846962597
 51
218.0998153037359
1001
REVIT
1002
{
1070
     3
1000
790271
1002
}
  0
SPLINE
  5
2B5
330
29A
100
AcDbEntity
  8
M-PIPE
100
AcDbSpline
210
0.0
220
0.0
230
1.0
 70
    24
 71
     3
 72
     9
 73
     5
 74
     0
 42
0.000000001
 43
0.0000000001
 40
0.0
 40
0.0
 40
0.0
 40
0.0
 40
0.5
 40
1.0
 40
1.0
 40
1.0
 40
1.0
 10
1060.280798977
 20
1951.966389422189
 30
0.0
 10
1057.67739598039
 20
1953.469464843091
 30
0.0
 10
1052.462918811461
 20
1956.480044640255
 30
0.0
 10
1047.233099291116
 20
1959.49948234814
 30
0.0
 10
1044.61435394309
 20
1961.011415679762
 30
0.0
1001
REVIT
1002
{
1070
     3
1000
790271
1002
}
  0
SPLINE
  5
2B6
330
29A
100
AcDbEntity
  8
M-PIPE
100
AcDbSpline
210
0.0
220
0.0
230
1.0
 70
    24
 71
     3
 72
     9
 73
     5
 74
     0
 42
0.000000001
 43
0.0000000001
 40
0.0
 40
0.0
 40
0.0
 40
0.0
 40
0.5
 40
1.0
 40
1.0
 40
1.0
 40
1.0
 10
1044.61435394309
 20
1961.011415679762
 30
0.0
 10
1041.99560859507
 20
1962.52334901138
 30
0.0
 10
1036.765789074737
 20
1965.542786719258
 30
0.0
 10
1031.55131190582
 20
1968.553366516416
 30
0.0
 10
1028.947908909215
 20
1970.056441937315
 30
0.0
1001
REVIT
1002
{
1070
     3
1000
790271
1002
}
  0
ARC
  5
2B7
330
29A
100
AcDbEntity
  8
M-PIPE
100
AcDbCircle
 10
1067.114353943108
 20
1999.982558850051
 30
0.0
 40
48.49999999999997
100
AcDbArc
 50
269.9999999999848
 51
278.0998153037362
1001
REVIT
1002
{
1070
     3
1000
790271
1002
}
  0
ARC
  5
2B8
330
29A
100
AcDbEntity
  8
M-PIPE
100
AcDbCircle
 10
1067.114353943108
 20
1999.982558850051
 30
0.0
 40
48.50000000000012
100
AcDbArc
 50
261.9001846962597
 51
269.9999999999845
1001
REVIT
1002
{
1070
     3
1000
790271
1002
}
  0
SPLINE
  5
2B9
330
29A
100
AcDbEntity
  8
M-PIPE
100
AcDbSpline
210
0.0
220
0.0
230
1.0
 70
    24
 71
     3
 72
     9
 73
     5
 74
     0
 42
0.000000001
 43
0.0000000001
 40
0.0
 40
0.0
 40
0.0
 40
0.0
 40
0.5
 40
1.0
 40
1.0
 40
1.0
 40
1.0
 10
1105.280798977001
 20
1970.056441937313
 30
0.0
 10
1102.677395980393
 20
1968.553366516412
 30
0.0
 10
1097.462918811468
 20
1965.542786719251
 30
0.0
 10
1092.233099291129
 20
1962.52334901137
 30
0.0
 10
1089.614353943106
 20
1961.01141567975
 30
0.0
1001
REVIT
1002
{
1070
     3
1000
790271
1002
}
  0
SPLINE
  5
2BA
330
29A
100
AcDbEntity
  8
M-PIPE
100
AcDbSpline
210
0.0
220
0.0
230
1.0
 70
    24
 71
     3
 72
     9
 73
     5
 74
     0
 42
0.000000001
 43
0.0000000001
 40
0.0
 40
0.0
 40
0.0
 40
0.0
 40
0.5
 40
1.0
 40
1.0
 40
1.0
 40
1.0
 10
1089.614353943106
 20
1961.01141567975
 30
0.0
 10
1086.995608595083
 20
1959.49948234813
 30
0.0
 10
1081.765789074745
 20
1956.480044640249
 30
0.0
 10
1076.551311905822
 20
1953.469464843089
 30
0.0
 10
1073.947908909214
 20
1951.966389422188
 30
0.0
1001
REVIT
1002
{
1070
     3
1000
790271
1002
}
  0
ARC
  5
2BB
330
29A
100
AcDbEntity
  8
M-PIPE
100
AcDbCircle
 10
1067.114353943108
 20
1999.982558850051
 30
0.0
 40
48.49999999999996
100
AcDbArc
 50
321.9001846962593
 51
338.0998153037359
1001
REVIT
1002
{
1070
     3
1000
790271
1002
}
  0
SPLINE
  5
2BC
330
29A
100
AcDbEntity
  8
M-PIPE
100
AcDbSpline
210
0.0
220
0.0
230
1.0
 70
    24
 71
     3
 72
     9
 73
     5
 74
     0
 42
0.000000001
 43
0.0000000001
 40
0.0
 40
0.0
 40
0.0
 40
0.0
 40
0.5
 40
1.0
 40
1.0
 40
1.0
 40
1.0
 10
1112.114353943109
 20
2018.072611365175
 30
0.0
 10
1112.114353943109
 20
2015.066460523377
 30
0.0
 10
1112.114353943109
 20
2009.045300929061
 30
0.0
 10
1112.114353943108
 20
2003.006425513305
 30
0.0
 10
1112.114353943108
 20
1999.982558850067
 30
0.0
1001
REVIT
1002
{
1070
     3
1000
790271
1002
}
  0
SPLINE
  5
2BD
330
29A
100
AcDbEntity
  8
M-PIPE
100
AcDbSpline
210
0.0
220
0.0
230
1.0
 70
    24
 71
     3
 72
     9
 73
     5
 74
     0
 42
0.000000001
 43
0.0000000001
 40
0.0
 40
0.0
 40
0.0
 40
0.0
 40
0.5
 40
1.0
 40
1.0
 40
1.0
 40
1.0
 10
1112.114353943108
 20
1999.982558850067
 30
0.0
 10
1112.114353943108
 20
1996.958692186824
 30
0.0
 10
1112.114353943108
 20
1990.919816771056
 30
0.0
 10
1112.114353943108
 20
1984.898657176729
 30
0.0
 10
1112.114353943108
 20
1981.892506334924
 30
0.0
1001
REVIT
1002
{
1070
     3
1000
790271
1002
}
  0
ARC
  5
2BE
330
29A
100
AcDbEntity
  8
M-PIPE
100
AcDbCircle
 10
1067.114353943108
 20
1999.982558850051
 30
0.0
 40
48.50000000000004
100
AcDbArc
 50
21.90018469626072
 51
38.09981530373738
1001
REVIT
1002
{
1070
     3
1000
790271
1002
}
  0
SPLINE
  5
2BF
330
29A
100
AcDbEntity
  8
M-PIPE
100
AcDbSpline
210
0.0
220
0.0
230
1.0
 70
    24
 71
     3
 72
     9
 73
     5
 74
     0
 42
0.000000001
 43
0.0000000001
 40
0.0
 40
0.0
 40
0.0
 40
0.0
 40
0.5
 40
1.0
 40
1.0
 40
1.0
 40
1.0
 10
1073.947908909216
 20
2047.998728277914
 30
0.0
 10
1076.551311905821
 20
2046.495652857014
 30
0.0
 10
1081.765789074738
 20
2043.485073059857
 30
0.0
 10
1086.995608595071
 20
2040.46563535198
 30
0.0
 10
1089.614353943092
 20
2038.953702020361
 30
0.0
1001
REVIT
1002
{
1070
     3
1000
790271
1002
}
  0
SPLINE
  5
2C0
330
29A
100
AcDbEntity
  8
M-PIPE
100
AcDbSpline
210
0.0
220
0.0
230
1.0
 70
    24
 71
     3
 72
     9
 73
     5
 74
     0
 42
0.000000001
 43
0.0000000001
 40
0.0
 40
0.0
 40
0.0
 40
0.0
 40
0.5
 40
1.0
 40
1.0
 40
1.0
 40
1.0
 10
1089.614353943092
 20
2038.953702020361
 30
0.0
 10
1092.233099291118
 20
2037.441768688738
 30
0.0
 10
1097.462918811463
 20
2034.422330980854
 30
0.0
 10
1102.677395980392
 20
2031.411751183689
 30
0.0
 10
1105.280798977003
 20
2029.908675762787
 30
0.0
1001
REVIT
1002
{
1070
     3
1000
790271
1002
}
  0
ARC
  5
2C1
330
29A
100
AcDbEntity
  8
P-SANR-FIXT
100
AcDbCircle
 10
1067.114353943096
 20
1999.982558850011
 30
0.0
 40
30.50000000004287
100
AcDbArc
 50
203.3598376749661
 51
216.6401623250299
  0
LINE
  5
2C2
330
29A
100
AcDbEntity
  8
P-SANR-FIXT
100
AcDbLine
 10
1042.641173910251
 20
1981.780540855224
 30
0.0
 11
1063.58753397589
 21
1969.687154232783
 31
0.0
  0
ARC
  5
2C3
330
29A
100
AcDbEntity
  8
P-SANR-FIXT
100
AcDbCircle
 10
1067.114353943096
 20
1999.982558850011
 30
0.0
 40
30.50000000004272
100
AcDbArc
 50
263.3598376749661
 51
276.6401623250297
  0
LINE
  5
2C4
330
29A
100
AcDbEntity
  8
P-SANR-FIXT
100
AcDbLine
 10
1070.6411739103
 20
1969.687154232783
 30
0.0
 11
1091.587533975941
 21
1981.780540855222
 31
0.0
  0
ARC
  5
2C5
330
29A
100
AcDbEntity
  8
P-SANR-FIXT
100
AcDbCircle
 10
1067.114353943096
 20
1999.982558850011
 30
0.0
 40
30.50000000004261
100
AcDbArc
 50
323.3598376749661
 51
336.6401623250301
  0
LINE
  5
2C6
330
29A
100
AcDbEntity
  8
P-SANR-FIXT
100
AcDbLine
 10
1095.114353943146
 20
1987.88917222757
 30
0.0
 11
1095.114353943146
 21
2012.075945472449
 31
0.0
  0
ARC
  5
2C7
330
29A
100
AcDbEntity
  8
P-SANR-FIXT
100
AcDbCircle
 10
1067.114353943096
 20
1999.982558850011
 30
0.0
 40
30.50000000004278
100
AcDbArc
 50
23.35983767496547
 51
36.64016232502975
  0
LINE
  5
2C8
330
29A
100
AcDbEntity
  8
P-SANR-FIXT
100
AcDbLine
 10
1091.587533975942
 20
2018.184576844797
 30
0.0
 11
1070.641173910302
 21
2030.277963467238
 31
0.0
  0
ARC
  5
2C9
330
29A
100
AcDbEntity
  8
P-SANR-FIXT
100
AcDbCircle
 10
1067.114353943096
 20
1999.982558850011
 30
0.0
 40
30.50000000004275
100
AcDbArc
 50
83.35983767496605
 51
96.64016232502968
  0
LINE
  5
2CA
330
29A
100
AcDbEntity
  8
P-SANR-FIXT
100
AcDbLine
 10
1063.587533975892
 20
2030.277963467238
 30
0.0
 11
1042.641173910252
 21
2018.184576844799
 31
0.0
  0
ARC
  5
2CB
330
29A
100
AcDbEntity
  8
P-SANR-FIXT
100
AcDbCircle
 10
1067.114353943096
 20
1999.982558850011
 30
0.0
 40
30.50000000004302
100
AcDbArc
 50
143.3598376749658
 51
156.6401623250295
  0
LINE
  5
2CC
330
29A
100
AcDbEntity
  8
P-SANR-FIXT
100
AcDbLine
 10
1039.114353943046
 20
2012.075945472452
 30
0.0
 11
1039.114353943046
 21
1987.889172227571
 31
0.0
  0
ARC
  5
2CD
330
29A
100
AcDbEntity
  8
P-SANR-FIXT
100
AcDbCircle
 10
1067.114353943096
 20
1999.982558850011
 30
0.0
 40
19.04999999999972
100
AcDbArc
 50
269.9999999999997
 51
90.0
  0
ARC
  5
2CE
330
29A
100
AcDbEntity
  8
P-SANR-FIXT
100
AcDbCircle
 10
1067.114353943096
 20
1999.982558850011
 30
0.0
 40
19.04999999999995
100
AcDbArc
 50
90.00000000000138
 51
269.9999999999997
  0
LINE
  5
2CF
330
29A
100
AcDbEntity
  8
P-SANR-FIXT
100
AcDbLine
 10
1074.614353943098
 20
2052.982558850012
 30
0.0
 11
1074.614353943098
 21
2066.982558850039
 31
0.0
  0
LINE
  5
2D0
330
29A
100
AcDbEntity
  8
P-SANR-FIXT
100
AcDbLine
 10
1059.614353943099
 20
2066.982558850032
 30
0.0
 11
1059.614353943099
 21
2052.982558850012
 31
0.0
  0
LINE
  5
2D1
330
29A
100
AcDbEntity
  8
P-SANR-FIXT
100
AcDbLine
 10
1082.929847193578
 20
1915.9835323144
 30
0.0
 11
1082.929847193578
 21
1923.054196020952
 31
0.0
  0
LINE
  5
2D2
330
29A
100
AcDbEntity
  8
P-SANR-FIXT
100
AcDbLine
 10
1051.298860692618
 20
1923.054196020952
 30
0.0
 11
1051.298860692618
 21
1915.9835323144
 31
0.0
  0
LINE
  5
2D3
330
29A
100
AcDbEntity
  8
P-SANR-FIXT
100
AcDbLine
 10
1104.679847193578
 20
1923.054196020952
 30
0.0
 11
1104.679847193579
 21
1957.443333139181
 31
0.0
  0
LINE
  5
2D4
330
29A
100
AcDbEntity
  8
P-SANR-FIXT
100
AcDbLine
 10
1029.548860692618
 20
1957.443333139181
 30
0.0
 11
1029.548860692618
 21
1923.054196020952
 31
0.0
  0
LINE
  5
2D5
330
29A
100
AcDbEntity
  8
P-SANR-FIXT
100
AcDbLine
 10
1097.114353943098
 20
1965.185286441098
 30
0.0
 11
1097.114353943098
 21
1965.341542698667
 31
0.0
  0
LINE
  5
2D6
330
29A
100
AcDbEntity
  8
P-SANR-FIXT
100
AcDbLine
 10
1037.114353943098
 20
1965.341542698681
 30
0.0
 11
1037.114353943098
 21
1965.185286441098
 31
0.0
  0
LINE
  5
2D7
330
29A
100
AcDbEntity
  8
P-SANR-FIXT
100
AcDbLine
 10
1052.614353943098
 20
2052.982558850012
 30
0.0
 11
1052.614353943098
 21
2043.572504173862
 31
0.0
  0
LINE
  5
2D8
330
29A
100
AcDbEntity
  8
P-SANR-FIXT
100
AcDbLine
 10
1081.614353943098
 20
2043.572504173876
 30
0.0
 11
1081.614353943098
 21
2052.982558850012
 31
0.0
  0
ELLIPSE
  5
2D9
330
29A
100
AcDbEntity
  8
P-SANR-FIXT
100
AcDbEllipse
 10
1067.114353943096
 20
1915.983532314399
 30
0.0
 11
15.81549325048013
 21
0.0
 31
0.0
210
0.0
220
0.0
230
1.0
 40
0.7660444431189703
 41
4.712388980384683
 42
7.853981633974482
  0
ELLIPSE
  5
2DA
330
29A
100
AcDbEntity
  8
P-SANR-FIXT
100
AcDbEllipse
 10
1067.114353943096
 20
1915.983532314399
 30
0.0
 11
-15.81549325048013
 21
0.0000000000004224
 31
0.0
210
0.0
220
0.0
230
1.0
 40
0.7660444431189846
 41
4.712388980384719
 42
7.853981633974498
  0
ELLIPSE
  5
2DB
330
29A
100
AcDbEntity
  8
P-SANR-FIXT
100
AcDbEllipse
 10
1067.114353943096
 20
1923.054196020951
 30
0.0
 11
15.81549325048013
 21
0.0
 31
0.0
210
0.0
220
0.0
230
1.0
 40
0.7660444431189703
 41
0.0
 42
1.570796326794896
  0
ELLIPSE
  5
2DC
330
29A
100
AcDbEntity
  8
P-SANR-FIXT
100
AcDbEllipse
 10
1067.114353943096
 20
1923.054196020951
 30
0.0
 11
-15.81549325048013
 21
0.0000000000004224
 31
0.0
210
0.0
220
0.0
230
1.0
 40
0.7660444431189703
 41
4.712388980384719
 42
6.283185307179622
  0
ELLIPSE
  5
2DD
330
29A
100
AcDbEntity
  8
P-SANR-FIXT
100
AcDbEllipse
 10
1067.114353943096
 20
1923.054196020951
 30
0.0
 11
-37.56549325048036
 21
0.0000000000001274
 31
0.0
210
0.0
220
0.0
230
1.0
 40
0.7660444431189816
 41
1.570796326794894
 42
4.607764162968713
  0
SPLINE
  5
2DE
330
29A
100
AcDbEntity
  8
P-SANR-FIXT
100
AcDbSpline
210
0.0
220
0.0
230
1.0
 70
     8
 71
     3
 72
    19
 73
    15
 74
     0
 42
0.000000001
 43
0.0000000001
 40
0.0
 40
0.0
 40
0.0
 40
0.0
 40
0.0714285714285714
 40
0.1071428571428571
 40
0.1428571428571428
 40
0.1785714285714286
 40
0.2142857142857143
 40
0.25
 40
0.2857142857142857
 40
0.3214285714285714
 40
0.3571428571428571
 40
0.4285714285714286
 40
0.5714285714285714
 40
0.6362134739145273
 40
0.6362134739145273
 40
0.6362134739145273
 40
0.6362134739145273
 10
1097.114353943096
 20
1965.185286441097
 30
0.0
 10
1097.083673501012
 20
1964.430832482474
 30
0.0
 10
1096.960991037011
 20
1963.406536078868
 30
0.0
 10
1096.634535454009
 20
1962.253522816858
 30
0.0
 10
1096.310028302222
 20
1961.488966408218
 30
0.0
 10
1095.881035519434
 20
1960.838329456881
 30
0.0
 10
1095.345528604021
 20
1960.293942193709
 30
0.0
 10
1094.726025799088
 20
1959.830084565787
 30
0.0
 10
1094.051585037433
 20
1959.419921650795
 30
0.0
 10
1093.313944649828
 20
1959.066236924259
 30
0.0
 10
1092.209975802497
 20
1958.683112546325
 30
0.0
 10
1090.047972235867
 20
1958.162071585183
 30
0.0
 10
1087.124909981084
 20
1957.818735045275
 30
0.0
 10
1084.575989284422
 20
1957.659979279705
 30
0.0
 10
1083.746505291182
 20
1957.618367874756
 30
0.0
  0
ELLIPSE
  5
2DF
330
29A
100
AcDbEntity
  8
P-SANR-FIXT
100
AcDbEllipse
 10
1067.114353943096
 20
1923.054196020951
 30
0.0
 11
37.56549325048042
 21
0.0
 31
0.0
210
0.0
220
0.0
230
1.0
 40
0.7660444431189783
 41
1.675421144210577
 42
4.712388980384677
  0
SPLINE
  5
2E0
330
29A
100
AcDbEntity
  8
P-SANR-FIXT
100
AcDbSpline
210
0.0
220
0.0
230
1.0
 70
     8
 71
     3
 72
    21
 73
    17
 74
     0
 42
0.000000001
 43
0.0000000001
 40
0.3637865260848563
 40
0.3637865260848563
 40
0.3637865260848563
 40
0.3637865260848563
 40
0.4285714285714286
 40
0.5714285714285714
 40
0.625
 40
0.6785714285714287
 40
0.7053571428571429
 40
0.71875
 40
0.7321428571428572
 40
0.7857142857142857
 40
0.8392857142857142
 40
0.8526785714285713
 40
0.8660714285714284
 40
0.8928571428571427
 40
0.9464285714285713
 40
1.0
 40
1.0
 40
1.0
 40
1.0
 10
1050.482212814055
 20
1957.618374053634
 30
0.0
 10
1049.652765360716
 20
1957.660007552257
 30
0.0
 10
1047.104044078795
 20
1957.818883892949
 30
0.0
 10
1044.366060953572
 20
1958.139065045198
 30
0.0
 10
1042.169873777996
 20
1958.644652908352
 30
0.0
 10
1041.110629640353
 20
1958.986195781892
 30
0.0
 10
1040.450634714247
 20
1959.285098164825
 30
0.0
 10
1040.099643962444
 20
1959.477035883785
 30
0.0
 10
1039.585160027219
 20
1959.777028071338
 30
0.0
 10
1038.865829072782
 20
1960.27734912027
 30
0.0
 10
1038.287570977738
 20
1960.912736226117
 30
0.0
 10
1037.980783252225
 20
1961.417136755966
 30
0.0
 10
1037.798235269357
 20
1961.776453908279
 30
0.0
 10
1037.520049974971
 20
1962.45406389938
 30
0.0
 10
1037.241420240867
 20
1963.568513598224
 30
0.0
 10
1037.13736427466
 20
1964.61944597213
 30
0.0
 10
1037.114353943096
 20
1965.185286441097
 30
0.0
  0
ELLIPSE
  5
2E1
330
29A
100
AcDbEntity
  8
P-SANR-FIXT
100
AcDbEllipse
 10
1067.114353943096
 20
1957.443333139181
 30
0.0
 11
37.56549325048013
 21
0.0
 31
0.0
210
0.0
220
0.0
230
1.0
 40
0.7660444431189742
 41
0.0
 42
0.38109884410236
  0
ELLIPSE
  5
2E2
330
29A
100
AcDbEntity
  8
P-SANR-FIXT
100
AcDbEllipse
 10
1067.114353943096
 20
1957.443333139181
 30
0.0
 11
37.56549325048
 21
0.0
 31
0.0
210
0.0
220
0.0
230
1.0
 40
0.7660444431189801
 41
2.760493809523353
 42
3.141592653589785
  0
LINE
  5
2E3
330
29A
100
AcDbEntity
  8
P-SANR-FIXT
100
AcDbLine
 10
1052.614353943097
 20
2052.982558850011
 30
0.0
 11
1067.114353943097
 21
2052.982558850011
 31
0.0
  0
LINE
  5
2E4
330
29A
100
AcDbEntity
  8
P-SANR-FIXT
100
AcDbLine
 10
1067.114353943097
 20
2052.982558850011
 30
0.0
 11
1081.614353943097
 21
2052.982558850011
 31
0.0
  0
ENDBLK
  5
2E6
330
29A
100
AcDbEntity
  8
0
100
AcDbBlockEnd
  0
ENDSEC
  0
SECTION
  2
ENTITIES
  0
INSERT
  5
18B
330
71
100
AcDbEntity
  8
P-SANR-FIXT
100
AcDbBlockReference
  2
Automatic flow rate regulator valve_Caleffi_121 DN15 - 1_2__-859151-Est - Idraulica
 10
0.0
 20
0.0
 30
0.0
1001
REVIT
1002
{
1070
     1
1000
863131
1002
}
1002
{
1070
     5
1000
859151
1002
}
1002
{
1070
     2
1000
-2001160
1002
}
  0
INSERT
  5
299
330
71
100
AcDbEntity
  8
P-SANR-FIXT
100
AcDbBlockReference
  2
Automatic flow rate regulator valve_Caleffi_121 DN15 - 1_2__-V1-Est - Idraulica
 10
0.0
 20
0.0
 30
0.0
1001
REVIT
1002
{
1070
     1
1000
863152
1002
}
1002
{
1070
     5
1000
859151
1002
}
1002
{
1070
     2
1000
-2001160
1002
}
  0
INSERT
  5
2E7
330
71
100
AcDbEntity
  8
P-SANR-FIXT
100
AcDbBlockReference
  2
Automatic flow rate regulator valve_Caleffi_121 DN15 - 1_2__-V2-Est - Idraulica
 10
0.0
 20
0.0
 30
0.0
1001
REVIT
1002
{
1070
     1
1000
863172
1002
}
1002
{
1070
     5
1000
859151
1002
}
1002
{
1070
     2
1000
-2001160
1002
}
  0
ENDSEC
  0
SECTION
  2
OBJECTS
  0
DICTIONARY
  5
C
330
0
100
AcDbDictionary
281
     1
  3
ACAD_CIP_PREVIOUS_PRODUCT_INFO
350
7A
  3
ACAD_COLOR
350
63
  3
ACAD_DETAILVIEWSTYLE
350
6B
  3
ACAD_GROUP
350
D
  3
ACAD_IMAGE_VARS
350
7B
  3
ACAD_LAYOUT
350
62
  3
ACAD_MATERIAL
350
10
  3
ACAD_MLEADERSTYLE
350
66
  3
ACAD_MLINESTYLE
350
5F
  3
ACAD_PLOTSETTINGS
350
61
  3
ACAD_PLOTSTYLENAME
350
E
  3
ACAD_SCALELIST
350
42
  3
ACAD_SECTIONVIEWSTYLE
350
68
  3
ACAD_TABLESTYLE
350
64
  3
ACAD_VISUALSTYLE
350
29
  3
ACDB_RECOMPOSE_DATA
350
2F2
  3
AcDbVariableDictionary
350
7C
  3
REVIT_DICTIONARY
350
2E9
  0
DICTIONARY
  5
2EE
330
71
100
AcDbDictionary
280
     1
281
     1
  3
ACAD_SORTENTS
360
2EF
  0
XRECORD
  5
7A
102
{ACAD_REACTORS
330
C
102
}
330
C
100
AcDbXrecord
280
     1
300
RVT
300
2013
300
RVT2013
  0
DICTIONARY
  5
63
102
{ACAD_REACTORS
330
C
102
}
330
C
100
AcDbDictionary
281
     1
  0
DICTIONARY
  5
6B
102
{ACAD_REACTORS
330
C
102
}
330
C
100
AcDbDictionary
281
     1
  3
Imperial24
350
6C
  0
DICTIONARY
  5
D
102
{ACAD_REACTORS
330
C
102
}
330
C
100
AcDbDictionary
281
     1
  0
RASTERVARIABLES
  5
7B
102
{ACAD_REACTORS
330
C
102
}
330
C
100
AcDbRasterVariables
 90
        0
 70
     0
 71
     1
 72
     1
  0
DICTIONARY
  5
62
102
{ACAD_REACTORS
330
C
102
}
330
C
100
AcDbDictionary
281
     1
  3
Layout1
350
70
  3
Layout2
350
78
  3
Model
350
74
  0
DICTIONARY
  5
10
102
{ACAD_REACTORS
330
C
102
}
330
C
100
AcDbDictionary
281
     1
  3
ByBlock
350
19
  3
ByLayer
350
11
  3
Global
350
21
  0
DICTIONARY
  5
66
102
{ACAD_REACTORS
330
C
102
}
330
C
100
AcDbDictionary
281
     1
  3
Standard
350
67
  0
DICTIONARY
  5
5F
102
{ACAD_REACTORS
330
C
102
}
330
C
100
AcDbDictionary
281
     1
  3
Standard
350
60
  0
DICTIONARY
  5
61
102
{ACAD_REACTORS
330
C
102
}
330
C
100
AcDbDictionary
281
     1
  0
ACDBDICTIONARYWDFLT
  5
E
102
{ACAD_REACTORS
330
C
102
}
330
C
100
AcDbDictionary
281
     1
  3
Normal
350
F
100
AcDbDictionaryWithDefault
340
F
  0
DICTIONARY
  5
42
102
{ACAD_REACTORS
330
C
102
}
330
C
100
AcDbDictionary
281
     1
  3
A0
350
43
  3
A1
350
44
  3
A2
350
45
  3
A3
350
46
  3
A4
350
47
  3
A5
350
48
  3
A6
350
49
  3
A7
350
4A
  3
A8
350
4B
  3
A9
350
4C
  3
B0
350
4D
  3
B1
350
4E
  3
B2
350
4F
  3
B3
350
50
  3
B4
350
51
  3
B5
350
52
  3
B6
350
53
  0
DICTIONARY
  5
68
102
{ACAD_REACTORS
330
C
102
}
330
C
100
AcDbDictionary
281
     1
  3
Imperial24
350
6A
  0
DICTIONARY
  5
64
102
{ACAD_REACTORS
330
C
102
}
330
C
100
AcDbDictionary
281
     1
  3
Standard
350
65
  0
DICTIONARY
  5
29
102
{ACAD_REACTORS
330
C
102
}
330
C
100
AcDbDictionary
281
     1
  3
2dWireframe
350
2F
  3
Basic
350
2E
  3
Brighten
350
35
  3
ColorChange
350
39
  3
Conceptual
350
32
  3
Dim
350
34
  3
EdgeColorOff
350
41
  3
Facepattern
350
38
  3
Flat
350
2A
  3
FlatWithEdges
350
2B
  3
Gouraud
350
2C
  3
GouraudWithEdges
350
2D
  3
Hidden
350
31
  3
JitterOff
350
3F
  3
Linepattern
350
37
  3
OverhangOff
350
40
  3
Realistic
350
33
  3
Shaded
350
3E
  3
Shaded with edges
350
3D
  3
Shades of Gray
350
3A
  3
Sketchy
350
3B
  3
Thicken
350
36
  3
Wireframe
350
30
  3
X-Ray
350
3C
  0
XRECORD
  5
2F2
102
{ACAD_REACTORS
330
C
102
}
330
C
100
AcDbXrecord
280
     1
 90
        1
330
65
  0
DICTIONARY
  5
7C
102
{ACAD_REACTORS
330
C
102
}
330
C
100
AcDbDictionary
281
     1
  3
CANNOSCALE
350
81
  3
CMLEADERSTYLE
350
7E
  3
CTABLESTYLE
350
7D
  3
CVIEWDETAILSTYLE
350
7F
  3
CVIEWSECTIONSTYLE
350
80
  0
DICTIONARY
  5
2E9
102
{ACAD_REACTORS
330
C
102
}
330
C
100
AcDbDictionary
281
     1
  3
DRAWING_TOOL
350
2ED
  3
REVIT_CATEGORY_MAPPING
350
2EB
  3
REVIT_SUB_CATEGORY_MAPPING
350
2EC
  3
REVIT_TYPE_MAPPING
350
2EA
  0
SORTENTSTABLE
  5
2EF
102
{ACAD_REACTORS
330
2EE
102
}
330
2EE
100
AcDbSortentsTable
330
71
  0
ACDBDETAILVIEWSTYLE
  5
6C
102
{ACAD_REACTORS
330
6B
102
}
330
6B
100
AcDbModelDocViewStyle
 70
     0
  3
Imperial24
290
     1
100
AcDbDetailViewStyle
 70
     0
 71
     0
 90
        3
 71
     1
340
55
 62
   256
 40
0.24
340
0
 62
   256
 40
0.24
300

 40
0.36
280
     3
 71
     2
340
5D
 90
       25
 62
   256
 71
     3
340
55
 62
   256
 40
0.24
 90
        1
 40
0.75
 90
        1
300
%<\AcVar ViewType \f "%tc1">% %<\AcVar ViewDetailId>%\PSCALA %<\AcVar ViewScale \f "%sn">%
 71
     4
340
5D
 90
       25
 62
   256
340
5D
 90
       25
 62
   256
280
     0
  0
LAYOUT
  5
70
102
{ACAD_REACTORS
330
62
102
}
330
62
100
AcDbPlotSettings
  1

  2

  4

  6

 40
0.0
 41
0.0
 42
0.0
 43
0.0
 44
0.0
 45
0.0
 46
0.0
 47
0.0
 48
0.0
 49
0.0
140
0.0
141
0.0
142
1.0
143
1.0
 70
   688
 72
     0
 73
     0
 74
     5
  7

 75
    16
147
1.0
 76
     0
 77
     2
 78
   300
148
0.0
149
0.0
100
AcDbLayout
  1
Layout1
 70
     1
 71
     1
 10
0.0
 20
0.0
 11
12.0
 21
9.0
 12
0.0
 22
0.0
 32
0.0
 14
0.0
 24
0.0
 34
0.0
 15
0.0
 25
0.0
 35
0.0
146
0.0
 13
0.0
 23
0.0
 33
0.0
 16
1.0
 26
0.0
 36
0.0
 17
0.0
 27
1.0
 37
0.0
 76
     0
330
6D
  0
LAYOUT
  5
78
102
{ACAD_REACTORS
330
62
102
}
330
62
100
AcDbPlotSettings
  1

  2

  4

  6

 40
0.0
 41
0.0
 42
0.0
 43
0.0
 44
0.0
 45
0.0
 46
0.0
 47
0.0
 48
0.0
 49
0.0
140
0.0
141
0.0
142
1.0
143
1.0
 70
   688
 72
     0
 73
     0
 74
     5
  7

 75
    16
147
1.0
 76
     0
 77
     2
 78
   300
148
0.0
149
0.0
100
AcDbLayout
  1
Layout2
 70
     1
 71
     2
 10
0.0
 20
0.0
 11
12.0
 21
9.0
 12
0.0
 22
0.0
 32
0.0
 14
0.0
 24
0.0
 34
0.0
 15
0.0
 25
0.0
 35
0.0
146
0.0
 13
0.0
 23
0.0
 33
0.0
 16
1.0
 26
0.0
 36
0.0
 17
0.0
 27
1.0
 37
0.0
 76
     0
330
75
  0
LAYOUT
  5
74
102
{ACAD_REACTORS
330
62
102
}
330
62
100
AcDbPlotSettings
  1

  2

  4

  6

 40
0.0
 41
0.0
 42
0.0
 43
0.0
 44
0.0
 45
0.0
 46
0.0
 47
0.0
 48
0.0
 49
0.0
140
0.0
141
0.0
142
1.0
143
1.0
 70
  1712
 72
     0
 73
     0
 74
     0
  7

 75
     0
147
1.0
 76
     0
 77
     2
 78
   300
148
0.0
149
0.0
100
AcDbLayout
  1
Model
 70
     1
 71
     0
 10
0.0
 20
0.0
 11
12.0
 21
9.0
 12
0.0
 22
0.0
 32
0.0
 14
0.0
 24
0.0
 34
0.0
 15
0.0
 25
0.0
 35
0.0
146
0.0
 13
0.0
 23
0.0
 33
0.0
 16
1.0
 26
0.0
 36
0.0
 17
0.0
 27
1.0
 37
0.0
 76
     0
330
71
  0
MATERIAL
  5
19
102
{ACAD_XDICTIONARY
360
1A
102
}
102
{ACAD_REACTORS
330
10
102
}
330
10
100
AcDbMaterial
  1
ByBlock
 72
     0
 43
0.0208333333333333
 43
0.0
 43
0.0
 43
0.0
 43
0.0
 43
0.0208333333333333
 43
0.0
 43
0.0
 43
0.0
 43
0.0
 43
1.0
 43
0.0
 43
0.0
 43
0.0
 43
0.0
 43
1.0
 77
     0
 47
0.0208333333333333
 47
0.0
 47
0.0
 47
0.0
 47
0.0
 47
0.0208333333333333
 47
0.0
 47
0.0
 47
0.0
 47
0.0
 47
1.0
 47
0.0
 47
0.0
 47
0.0
 47
0.0
 47
1.0
171
     0
 49
0.0208333333333333
 49
0.0
 49
0.0
 49
0.0
 49
0.0
 49
0.0208333333333333
 49
0.0
 49
0.0
 49
0.0
 49
0.0
 49
1.0
 49
0.0
 49
0.0
 49
0.0
 49
0.0
 49
1.0
175
     0
142
0.0208333333333333
142
0.0
142
0.0
142
0.0
142
0.0
142
0.0208333333333333
142
0.0
142
0.0
142
0.0
142
0.0
142
1.0
142
0.0
142
0.0
142
0.0
142
0.0
142
1.0
179
     0
144
0.0208333333333333
144
0.0
144
0.0
144
0.0
144
0.0
144
0.0208333333333333
144
0.0
144
0.0
144
0.0
144
0.0
144
1.0
144
0.0
144
0.0
144
0.0
144
0.0
144
1.0
147
0.0208333333333333
147
0.0
147
0.0
147
0.0
147
0.0
147
0.0208333333333333
147
0.0
147
0.0
147
0.0
147
0.0
147
1.0
147
0.0
147
0.0
147
0.0
147
0.0
147
1.0
  0
MATERIAL
  5
11
102
{ACAD_XDICTIONARY
360
12
102
}
102
{ACAD_REACTORS
330
10
102
}
330
10
100
AcDbMaterial
  1
ByLayer
 72
     0
 43
0.0208333333333333
 43
0.0
 43
0.0
 43
0.0
 43
0.0
 43
0.0208333333333333
 43
0.0
 43
0.0
 43
0.0
 43
0.0
 43
1.0
 43
0.0
 43
0.0
 43
0.0
 43
0.0
 43
1.0
 77
     0
 47
0.0208333333333333
 47
0.0
 47
0.0
 47
0.0
 47
0.0
 47
0.0208333333333333
 47
0.0
 47
0.0
 47
0.0
 47
0.0
 47
1.0
 47
0.0
 47
0.0
 47
0.0
 47
0.0
 47
1.0
171
     0
 49
0.0208333333333333
 49
0.0
 49
0.0
 49
0.0
 49
0.0
 49
0.0208333333333333
 49
0.0
 49
0.0
 49
0.0
 49
0.0
 49
1.0
 49
0.0
 49
0.0
 49
0.0
 49
0.0
 49
1.0
175
     0
142
0.0208333333333333
142
0.0
142
0.0
142
0.0
142
0.0
142
0.0208333333333333
142
0.0
142
0.0
142
0.0
142
0.0
142
1.0
142
0.0
142
0.0
142
0.0
142
0.0
142
1.0
179
     0
144
0.0208333333333333
144
0.0
144
0.0
144
0.0
144
0.0
144
0.0208333333333333
144
0.0
144
0.0
144
0.0
144
0.0
144
1.0
144
0.0
144
0.0
144
0.0
144
0.0
144
1.0
147
0.0208333333333333
147
0.0
147
0.0
147
0.0
147
0.0
147
0.0208333333333333
147
0.0
147
0.0
147
0.0
147
0.0
147
1.0
147
0.0
147
0.0
147
0.0
147
0.0
147
1.0
  0
MATERIAL
  5
21
102
{ACAD_XDICTIONARY
360
22
102
}
102
{ACAD_REACTORS
330
10
102
}
330
10
100
AcDbMaterial
  1
Global
 72
     0
 43
0.0208333333333333
 43
0.0
 43
0.0
 43
0.0
 43
0.0
 43
0.0208333333333333
 43
0.0
 43
0.0
 43
0.0
 43
0.0
 43
1.0
 43
0.0
 43
0.0
 43
0.0
 43
0.0
 43
1.0
 77
     0
 47
0.0208333333333333
 47
0.0
 47
0.0
 47
0.0
 47
0.0
 47
0.0208333333333333
 47
0.0
 47
0.0
 47
0.0
 47
0.0
 47
1.0
 47
0.0
 47
0.0
 47
0.0
 47
0.0
 47
1.0
171
     0
 49
0.0208333333333333
 49
0.0
 49
0.0
 49
0.0
 49
0.0
 49
0.0208333333333333
 49
0.0
 49
0.0
 49
0.0
 49
0.0
 49
1.0
 49
0.0
 49
0.0
 49
0.0
 49
0.0
 49
1.0
175
     0
142
0.0208333333333333
142
0.0
142
0.0
142
0.0
142
0.0
142
0.0208333333333333
142
0.0
142
0.0
142
0.0
142
0.0
142
1.0
142
0.0
142
0.0
142
0.0
142
0.0
142
1.0
179
     0
144
0.0208333333333333
144
0.0
144
0.0
144
0.0
144
0.0
144
0.0208333333333333
144
0.0
144
0.0
144
0.0
144
0.0
144
1.0
144
0.0
144
0.0
144
0.0
144
0.0
144
1.0
147
0.0208333333333333
147
0.0
147
0.0
147
0.0
147
0.0
147
0.0208333333333333
147
0.0
147
0.0
147
0.0
147
0.0
147
1.0
147
0.0
147
0.0
147
0.0
147
0.0
147
1.0
  0
MLEADERSTYLE
  5
67
102
{ACAD_REACTORS
330
66
102
}
330
66
100
AcDbMLeaderStyle
179
     2
170
     2
171
     1
172
     0
 90
        2
 40
0.0
 41
0.0
173
     1
 91
-1056964608
340
5B
 92
       -2
290
     1
 42
0.09
291
     1
 43
0.36
  3
Standard
 44
0.18
300

342
55
174
     1
178
     6
175
     1
176
     0
 93
-1056964608
 45
0.18
292
     0
297
     0
 46
0.18
 94
-1056964608
 47
1.0
 49
1.0
140
1.0
293
     1
141
0.0
294
     1
177
     0
142
1.0
295
     1
296
     0
143
0.125
271
     0
272
     9
273
     9
298
     1
  0
MLINESTYLE
  5
60
102
{ACAD_REACTORS
330
5F
102
}
330
5F
100
AcDbMlineStyle
  2
STANDARD
 70
     0
  3

 62
   256
 51
90.0
 52
90.0
 71
     2
 49
0.5
 62
   256
  6
BYLAYER
 49
-0.5
 62
   256
  6
BYLAYER
  0
ACDBPLACEHOLDER
  5
F
102
{ACAD_REACTORS
330
E
102
}
330
E
  0
SCALE
  5
43
102
{ACAD_REACTORS
330
42
102
}
330
42
100
AcDbScale
 70
     0
300
1:1
140
1.0
141
1.0
290
     1
  0
SCALE
  5
44
102
{ACAD_REACTORS
330
42
102
}
330
42
100
AcDbScale
 70
     0
300
1/128" = 1'-0"
140
0.0078125
141
12.0
290
     0
  0
SCALE
  5
45
102
{ACAD_REACTORS
330
42
102
}
330
42
100
AcDbScale
 70
     0
300
1/64" = 1'-0"
140
0.015625
141
12.0
290
     0
  0
SCALE
  5
46
102
{ACAD_REACTORS
330
42
102
}
330
42
100
AcDbScale
 70
     0
300
1/32" = 1'-0"
140
0.03125
141
12.0
290
     0
  0
SCALE
  5
47
102
{ACAD_REACTORS
330
42
102
}
330
42
100
AcDbScale
 70
     0
300
1/16" = 1'-0"
140
0.0625
141
12.0
290
     0
  0
SCALE
  5
48
102
{ACAD_REACTORS
330
42
102
}
330
42
100
AcDbScale
 70
     0
300
3/32" = 1'-0"
140
0.09375
141
12.0
290
     0
  0
SCALE
  5
49
102
{ACAD_REACTORS
330
42
102
}
330
42
100
AcDbScale
 70
     0
300
1/8" = 1'-0"
140
0.125
141
12.0
290
     0
  0
SCALE
  5
4A
102
{ACAD_REACTORS
330
42
102
}
330
42
100
AcDbScale
 70
     0
300
3/16" = 1'-0"
140
0.1875
141
12.0
290
     0
  0
SCALE
  5
4B
102
{ACAD_REACTORS
330
42
102
}
330
42
100
AcDbScale
 70
     0
300
1/4" = 1'-0"
140
0.25
141
12.0
290
     0
  0
SCALE
  5
4C
102
{ACAD_REACTORS
330
42
102
}
330
42
100
AcDbScale
 70
     0
300
3/8" = 1'-0"
140
0.375
141
12.0
290
     0
  0
SCALE
  5
4D
102
{ACAD_REACTORS
330
42
102
}
330
42
100
AcDbScale
 70
     0
300
1/2" = 1'-0"
140
0.5
141
12.0
290
     0
  0
SCALE
  5
4E
102
{ACAD_REACTORS
330
42
102
}
330
42
100
AcDbScale
 70
     0
300
3/4" = 1'-0"
140
0.75
141
12.0
290
     0
  0
SCALE
  5
4F
102
{ACAD_REACTORS
330
42
102
}
330
42
100
AcDbScale
 70
     0
300
1" = 1'-0"
140
1.0
141
12.0
290
     0
  0
SCALE
  5
50
102
{ACAD_REACTORS
330
42
102
}
330
42
100
AcDbScale
 70
     0
300
1-1/2" = 1'-0"
140
1.5
141
12.0
290
     0
  0
SCALE
  5
51
102
{ACAD_REACTORS
330
42
102
}
330
42
100
AcDbScale
 70
     0
300
3" = 1'-0"
140
3.0
141
12.0
290
     0
  0
SCALE
  5
52
102
{ACAD_REACTORS
330
42
102
}
330
42
100
AcDbScale
 70
     0
300
6" = 1'-0"
140
6.0
141
12.0
290
     0
  0
SCALE
  5
53
102
{ACAD_REACTORS
330
42
102
}
330
42
100
AcDbScale
 70
     0
300
1'-0" = 1'-0"
140
12.0
141
12.0
290
     0
  0
ACDBSECTIONVIEWSTYLE
  5
6A
102
{ACAD_REACTORS
330
68
102
}
330
68
100
AcDbModelDocViewStyle
 70
     0
  3
Imperial24
290
     1
100
AcDbSectionViewStyle
 70
     0
 71
     0
 90
       78
 71
     1
340
55
 62
   256
 40
0.24
340
0
340
0
 62
   256
 40
0.24
300
I, O, Q, S, X, Z
 40
0.48
 90
        3
 40
0.18
 90
        1
 71
     2
340
69
 90
       25
 62
   256
340
5D
 90
       50
 62
   256
 40
0.24
 40
0.0
 40
0.24
 71
     3
340
55
 62
   256
 40
0.24
 90
        1
 40
0.75
 90
        1
300
%<\AcVar ViewType \f "%tc1">% %<\AcVar ViewSectionStartId>%-%<\AcVar ViewSectionEndId>%\PSCALA %<\AcVar ViewScale \f "%sn">%
 71
     4
 62
   256
 62
   257
300
ANSI31
 40
1.0
 90
        0
290
     0
290
     0
 90
        6
 40
0.0
 40
1.570796326794896
 40
0.2617993877991494
 40
1.308996938995747
 40
-0.2617993877991494
 40
1.832595714594046
  0
TABLESTYLE
  5
65
102
{ACAD_XDICTIONARY
360
2F0
102
}
102
{ACAD_REACTORS
330
64
102
}
330
64
100
AcDbTableStyle
280
     0
  3
Standard
 70
     0
 71
     0
 40
0.06
 41
0.06
280
     0
281
     0
  7
Standard
140
0.18
170
     2
 62
     0
 63
     7
283
     0
 90
      512
 91
        0
  1

274
    -2
284
     1
 64
     0
275
    -2
285
     1
 65
     0
276
    -2
286
     1
 66
     0
277
    -2
287
     1
 67
     0
278
    -2
288
     1
 68
     0
279
    -2
289
     1
 69
     0
  7
Standard
140
0.25
170
     5
 62
     0
 63
     7
283
     0
 90
      512
 91
        0
  1

274
    -2
284
     1
 64
     0
275
    -2
285
     1
 65
     0
276
    -2
286
     1
 66
     0
277
    -2
287
     1
 67
     0
278
    -2
288
     1
 68
     0
279
    -2
289
     1
 69
     0
  7
Standard
140
0.18
170
     5
 62
     0
 63
     7
283
     0
 90
      512
 91
        0
  1

274
    -2
284
     1
 64
     0
275
    -2
285
     1
 65
     0
276
    -2
286
     1
 66
     0
277
    -2
287
     1
 67
     0
278
    -2
288
     1
 68
     0
279
    -2
289
     1
 69
     0
  0
VISUALSTYLE
  5
2F
102
{ACAD_REACTORS
330
29
102
}
330
29
100
AcDbVisualStyle
  2
2dWireframe
 70
     4
177
     3
291
     0
 70
    58
 90
        0
176
     1
 90
        2
176
     1
 90
        0
176
     1
 90
        0
176
     1
 40
0.6
176
     1
 40
30.0
176
     1
 62
     7
420
 16777215
176
     1
 90
        1
176
     1
 90
        4
176
     1
 62
     7
176
     1
 62
   257
176
     1
 90
        1
176
     1
 90
        1
176
     1
 40
1.0
176
     1
 90
        0
176
     1
 62
   257
176
     1
 40
1.0
176
     1
 90
        1
176
     1
 90
        6
176
     1
 90
        2
176
     1
 62
     7
176
     1
 90
        5
176
     1
 90
        0
176
     1
 90
        0
176
     1
290
     0
176
     1
 90
        1
176
     1
 40
0.0
176
     1
 90
        0
176
     1
290
     1
176
     1
290
     1
176
     1
290
     0
176
     1
290
     0
176
     1
290
     0
176
     1
290
     0
176
     1
290
     0
176
     1
290
     0
176
     1
290
     0
176
     1
 90
       50
176
     1
 40
0.0
176
     1
 40
1.0
176
     1
 90
        0
176
     1
 62
    18
420
        0
176
     1
 90
       50
176
     1
 90
        3
176
     1
 62
     5
420
      255
176
     1
290
     0
176
     1
 90
       50
176
     1
 90
       50
176
     1
 90
       50
176
     1
290
     0
176
     1
 90
       50
176
     1
 62
   256
176
     0
 40
1.0
176
     0
 90
        2
176
     1
  1
strokes_ogs.tif
176
     1
290
     0
176
     1
 40
1.0
176
     1
 40
1.0
176
     1
  0
VISUALSTYLE
  5
2E
102
{ACAD_REACTORS
330
29
102
}
330
29
100
AcDbVisualStyle
  2
Basic
 70
     7
177
     3
291
     1
 70
    58
 90
        1
176
     1
 90
        0
176
     1
 90
        1
176
     1
 90
        0
176
     1
 40
0.6
176
     1
 40
30.0
176
     1
 62
     7
420
 16777215
176
     1
 90
        0
176
     1
 90
        4
176
     1
 62
     7
176
     1
 62
   257
176
     1
 90
        1
176
     1
 90
        1
176
     1
 40
1.0
176
     1
 90
        8
176
     1
 62
     7
176
     1
 40
1.0
176
     1
 90
        1
176
     1
 90
        6
176
     1
 90
        2
176
     1
 62
     7
176
     1
 90
        5
176
     1
 90
        0
176
     1
 90
        0
176
     1
290
     0
176
     1
 90
        1
176
     1
 40
0.0
176
     1
 90
        0
176
     1
290
     0
176
     1
290
     1
176
     1
290
     1
176
     1
290
     0
176
     1
290
     0
176
     1
290
     0
176
     1
290
     0
176
     1
290
     0
176
     1
290
     0
176
     1
 90
       50
176
     1
 40
0.0
176
     1
 40
1.0
176
     1
 90
        0
176
     1
 62
    18
420
        0
176
     1
 90
       50
176
     1
 90
        3
176
     1
 62
     5
420
      255
176
     1
290
     0
176
     1
 90
       50
176
     1
 90
       50
176
     1
 90
       50
176
     1
290
     0
176
     1
 90
       50
176
     1
 62
   256
176
     0
 40
1.0
176
     0
 90
        2
176
     1
  1
strokes_ogs.tif
176
     1
290
     0
176
     1
 40
1.0
176
     1
 40
1.0
176
     1
  0
VISUALSTYLE
  5
35
102
{ACAD_REACTORS
330
29
102
}
330
29
100
AcDbVisualStyle
  2
Brighten
 70
    12
177
     3
291
     1
 70
    58
 90
        2
176
     1
 90
        2
176
     1
 90
        0
176
     1
 90
        0
176
     1
 40
0.6
176
     1
 40
30.0
176
     1
 62
     7
420
 16777215
176
     1
 90
        1
176
     1
 90
        4
176
     1
 62
     7
176
     1
 62
   257
176
     1
 90
        1
176
     1
 90
        1
176
     1
 40
1.0
176
     1
 90
        8
176
     1
 62
     7
176
     1
 40
1.0
176
     1
 90
        1
176
     1
 90
        6
176
     1
 90
        2
176
     1
 62
     7
176
     1
 90
        5
176
     1
 90
        0
176
     1
 90
        0
176
     1
290
     0
176
     1
 90
        1
176
     1
 40
50.0
176
     1
 90
        0
176
     1
290
     0
176
     1
290
     1
176
     1
290
     1
176
     1
290
     0
176
     1
290
     0
176
     1
290
     0
176
     1
290
     0
176
     1
290
     0
176
     1
290
     0
176
     1
 90
       50
176
     1
 40
0.0
176
     1
 40
1.0
176
     1
 90
        0
176
     1
 62
    18
420
        0
176
     1
 90
       50
176
     1
 90
        3
176
     1
 62
     5
420
      255
176
     1
290
     0
176
     1
 90
       50
176
     1
 90
       50
176
     1
 90
       50
176
     1
290
     0
176
     1
 90
       50
176
     1
 62
   256
176
     0
 40
1.0
176
     0
 90
        2
176
     1
  1
strokes_ogs.tif
176
     1
290
     0
176
     1
 40
1.0
176
     1
 40
1.0
176
     1
  0
VISUALSTYLE
  5
39
102
{ACAD_REACTORS
330
29
102
}
330
29
100
AcDbVisualStyle
  2
ColorChange
 70
    16
177
     3
291
     1
 70
    58
 90
        2
176
     1
 90
        2
176
     1
 90
        3
176
     1
 90
        0
176
     1
 40
0.6
176
     1
 40
30.0
176
     1
 62
     8
420
  8421504
176
     1
 90
        1
176
     1
 90
        4
176
     1
 62
     7
176
     1
 62
   257
176
     1
 90
        1
176
     1
 90
        1
176
     1
 40
1.0
176
     1
 90
        8
176
     1
 62
     8
420
  8421504
176
     1
 40
1.0
176
     1
 90
        1
176
     1
 90
        6
176
     1
 90
        2
176
     1
 62
     7
176
     1
 90
        5
176
     1
 90
        0
176
     1
 90
        0
176
     1
290
     0
176
     1
 90
        1
176
     1
 40
0.0
176
     1
 90
        0
176
     1
290
     0
176
     1
290
     1
176
     1
290
     1
176
     1
290
     0
176
     1
290
     0
176
     1
290
     0
176
     1
290
     0
176
     1
290
     0
176
     1
290
     0
176
     1
 90
       50
176
     1
 40
0.0
176
     1
 40
1.0
176
     1
 90
        0
176
     1
 62
    18
420
        0
176
     1
 90
       50
176
     1
 90
        3
176
     1
 62
     5
420
      255
176
     1
290
     0
176
     1
 90
       50
176
     1
 90
       50
176
     1
 90
       50
176
     1
290
     0
176
     1
 90
       50
176
     1
 62
   256
176
     0
 40
1.0
176
     0
 90
        2
176
     1
  1
strokes_ogs.tif
176
     1
290
     0
176
     1
 40
1.0
176
     1
 40
1.0
176
     1
  0
VISUALSTYLE
  5
32
102
{ACAD_REACTORS
330
29
102
}
330
29
100
AcDbVisualStyle
  2
Conceptual
 70
     9
177
     3
291
     0
 70
    58
 90
        3
176
     1
 90
        2
176
     1
 90
        0
176
     1
 90
        0
176
     1
 40
0.6
176
     1
 40
30.0
176
     1
 62
     7
420
 16777215
176
     1
 90
        2
176
     1
 90
        2
176
     1
 62
     7
176
     1
 62
   257
176
     1
 90
        1
176
     1
 90
        1
176
     1
 40
179.0
176
     1
 90
        8
176
     1
 62
     7
176
     1
 40
1.0
176
     1
 90
        1
176
     1
 90
        6
176
     1
 90
        2
176
     1
 62
     7
176
     1
 90
        3
176
     1
 90
        0
176
     1
 90
        0
176
     1
290
     0
176
     1
 90
        1
176
     1
 40
0.0
176
     1
 90
        0
176
     1
290
     0
176
     1
290
     1
176
     1
290
     1
176
     1
290
     0
176
     1
290
     0
176
     1
290
     0
176
     1
290
     0
176
     1
290
     0
176
     1
290
     0
176
     1
 90
       50
176
     1
 40
0.0
176
     1
 40
1.0
176
     1
 90
        0
176
     1
 62
    18
420
        0
176
     1
 90
       50
176
     1
 90
        3
176
     1
 62
     5
420
      255
176
     1
290
     0
176
     1
 90
       50
176
     1
 90
       50
176
     1
 90
       50
176
     1
290
     0
176
     1
 90
       50
176
     1
 62
   256
176
     0
 40
1.0
176
     0
 90
        2
176
     1
  1
strokes_ogs.tif
176
     1
290
     0
176
     1
 40
1.0
176
     1
 40
1.0
176
     1
  0
VISUALSTYLE
  5
34
102
{ACAD_REACTORS
330
29
102
}
330
29
100
AcDbVisualStyle
  2
Dim
 70
    11
177
     3
291
     1
 70
    58
 90
        2
176
     1
 90
        2
176
     1
 90
        0
176
     1
 90
        0
176
     1
 40
0.6
176
     1
 40
30.0
176
     1
 62
     7
420
 16777215
176
     1
 90
        1
176
     1
 90
        4
176
     1
 62
     7
176
     1
 62
   257
176
     1
 90
        1
176
     1
 90
        1
176
     1
 40
1.0
176
     1
 90
        8
176
     1
 62
     7
176
     1
 40
1.0
176
     1
 90
        1
176
     1
 90
        6
176
     1
 90
        2
176
     1
 62
     7
176
     1
 90
        5
176
     1
 90
        0
176
     1
 90
        0
176
     1
290
     0
176
     1
 90
        1
176
     1
 40
-50.0
176
     1
 90
        0
176
     1
290
     0
176
     1
290
     1
176
     1
290
     1
176
     1
290
     0
176
     1
290
     0
176
     1
290
     0
176
     1
290
     0
176
     1
290
     0
176
     1
290
     0
176
     1
 90
       50
176
     1
 40
0.0
176
     1
 40
1.0
176
     1
 90
        0
176
     1
 62
    18
420
        0
176
     1
 90
       50
176
     1
 90
        3
176
     1
 62
     5
420
      255
176
     1
290
     0
176
     1
 90
       50
176
     1
 90
       50
176
     1
 90
       50
176
     1
290
     0
176
     1
 90
       50
176
     1
 62
   256
176
     0
 40
1.0
176
     0
 90
        2
176
     1
  1
strokes_ogs.tif
176
     1
290
     0
176
     1
 40
1.0
176
     1
 40
1.0
176
     1
  0
VISUALSTYLE
  5
41
102
{ACAD_REACTORS
330
29
102
}
330
29
100
AcDbVisualStyle
  2
EdgeColorOff
 70
    22
177
     3
291
     1
 70
    58
 90
        2
176
     0
 90
        2
176
     0
 90
        0
176
     0
 90
        0
176
     0
 40
0.6
176
     0
 40
30.0
176
     0
 62
     7
420
 16777215
176
     0
 90
        1
176
     0
 90
        4
176
     0
 62
     7
176
     0
 62
   257
176
     0
 90
        1
176
     0
 90
        1
176
     0
 40
1.0
176
     0
 90
        8
176
     2
 62
     7
176
     0
 40
1.0
176
     0
 90
        1
176
     0
 90
        6
176
     0
 90
        2
176
     0
 62
     7
176
     0
 90
        5
176
     0
 90
        0
176
     0
 90
        0
176
     0
290
     0
176
     0
 90
        1
176
     0
 40
0.0
176
     0
 90
        0
176
     0
290
     0
176
     0
290
     1
176
     0
290
     1
176
     0
290
     0
176
     0
290
     0
176
     0
290
     0
176
     0
290
     0
176
     0
290
     0
176
     0
290
     0
176
     0
 90
       50
176
     0
 40
0.0
176
     0
 40
1.0
176
     0
 90
        0
176
     0
 62
    18
420
        0
176
     0
 90
       50
176
     0
 90
        3
176
     0
 62
     5
420
      255
176
     0
290
     0
176
     0
 90
       50
176
     0
 90
       50
176
     0
 90
       50
176
     0
290
     0
176
     0
 90
       50
176
     0
 62
   256
176
     0
 40
1.0
176
     0
 90
        2
176
     0
  1
strokes_ogs.tif
176
     0
290
     0
176
     0
 40
1.0
176
     0
 40
1.0
176
     0
  0
VISUALSTYLE
  5
38
102
{ACAD_REACTORS
330
29
102
}
330
29
100
AcDbVisualStyle
  2
Facepattern
 70
    15
177
     3
291
     1
 70
    58
 90
        2
176
     1
 90
        2
176
     1
 90
        0
176
     1
 90
        0
176
     1
 40
0.6
176
     1
 40
30.0
176
     1
 62
     7
420
 16777215
176
     1
 90
        1
176
     1
 90
        4
176
     1
 62
     7
176
     1
 62
   257
176
     1
 90
        1
176
     1
 90
        1
176
     1
 40
1.0
176
     1
 90
        8
176
     1
 62
     7
176
     1
 40
1.0
176
     1
 90
        1
176
     1
 90
        6
176
     1
 90
        2
176
     1
 62
     7
176
     1
 90
        5
176
     1
 90
        0
176
     1
 90
        0
176
     1
290
     0
176
     1
 90
        1
176
     1
 40
0.0
176
     1
 90
        0
176
     1
290
     0
176
     1
290
     1
176
     1
290
     1
176
     1
290
     0
176
     1
290
     0
176
     1
290
     0
176
     1
290
     0
176
     1
290
     0
176
     1
290
     0
176
     1
 90
       50
176
     1
 40
0.0
176
     1
 40
1.0
176
     1
 90
        0
176
     1
 62
    18
420
        0
176
     1
 90
       50
176
     1
 90
        3
176
     1
 62
     5
420
      255
176
     1
290
     0
176
     1
 90
       50
176
     1
 90
       50
176
     1
 90
       50
176
     1
290
     0
176
     1
 90
       50
176
     1
 62
   256
176
     0
 40
1.0
176
     0
 90
        2
176
     1
  1
strokes_ogs.tif
176
     1
290
     0
176
     1
 40
1.0
176
     1
 40
1.0
176
     1
  0
VISUALSTYLE
  5
2A
102
{ACAD_REACTORS
330
29
102
}
330
29
100
AcDbVisualStyle
  2
Flat
 70
     0
177
     3
291
     1
 70
    58
 90
        2
176
     1
 90
        1
176
     1
 90
        1
176
     1
 90
        2
176
     1
 40
0.6
176
     1
 40
30.0
176
     1
 62
     7
420
 16777215
176
     1
 90
        0
176
     1
 90
        0
176
     1
 62
     7
176
     1
 62
   257
176
     1
 90
        1
176
     1
 90
        1
176
     1
 40
1.0
176
     1
 90
        8
176
     1
 62
     7
176
     1
 40
1.0
176
     1
 90
        1
176
     1
 90
        6
176
     1
 90
        2
176
     1
 62
     7
176
     1
 90
        5
176
     1
 90
        0
176
     1
 90
        0
176
     1
290
     0
176
     1
 90
       13
176
     1
 40
0.0
176
     1
 90
        0
176
     1
290
     0
176
     1
290
     1
176
     1
290
     1
176
     1
290
     0
176
     1
290
     0
176
     1
290
     0
176
     1
290
     0
176
     1
290
     0
176
     1
290
     0
176
     1
 90
       50
176
     1
 40
0.0
176
     1
 40
1.0
176
     1
 90
        0
176
     1
 62
    18
420
        0
176
     1
 90
       50
176
     1
 90
        3
176
     1
 62
     5
420
      255
176
     1
290
     0
176
     1
 90
       50
176
     1
 90
       50
176
     1
 90
       50
176
     1
290
     0
176
     1
 90
       50
176
     1
 62
   256
176
     0
 40
1.0
176
     0
 90
        2
176
     1
  1
strokes_ogs.tif
176
     1
290
     0
176
     1
 40
1.0
176
     1
 40
1.0
176
     1
  0
VISUALSTYLE
  5
2B
102
{ACAD_REACTORS
330
29
102
}
330
29
100
AcDbVisualStyle
  2
FlatWithEdges
 70
     1
177
     3
291
     1
 70
    58
 90
        2
176
     1
 90
        1
176
     1
 90
        1
176
     1
 90
        2
176
     1
 40
0.6
176
     1
 40
30.0
176
     1
 62
     7
420
 16777215
176
     1
 90
        1
176
     1
 90
        0
176
     1
 62
     7
176
     1
 62
   257
176
     1
 90
        1
176
     1
 90
        1
176
     1
 40
1.0
176
     1
 90
        0
176
     1
 62
   257
176
     1
 40
1.0
176
     1
 90
        1
176
     1
 90
        6
176
     1
 90
        2
176
     1
 62
     7
176
     1
 90
        5
176
     1
 90
        0
176
     1
 90
        0
176
     1
290
     0
176
     1
 90
       13
176
     1
 40
0.0
176
     1
 90
        0
176
     1
290
     0
176
     1
290
     1
176
     1
290
     1
176
     1
290
     0
176
     1
290
     0
176
     1
290
     0
176
     1
290
     0
176
     1
290
     0
176
     1
290
     0
176
     1
 90
       50
176
     1
 40
0.0
176
     1
 40
1.0
176
     1
 90
        0
176
     1
 62
    18
420
        0
176
     1
 90
       50
176
     1
 90
        3
176
     1
 62
     5
420
      255
176
     1
290
     0
176
     1
 90
       50
176
     1
 90
       50
176
     1
 90
       50
176
     1
290
     0
176
     1
 90
       50
176
     1
 62
   256
176
     0
 40
1.0
176
     0
 90
        2
176
     1
  1
strokes_ogs.tif
176
     1
290
     0
176
     1
 40
1.0
176
     1
 40
1.0
176
     1
  0
VISUALSTYLE
  5
2C
102
{ACAD_REACTORS
330
29
102
}
330
29
100
AcDbVisualStyle
  2
Gouraud
 70
     2
177
     3
291
     1
 70
    58
 90
        2
176
     1
 90
        2
176
     1
 90
        1
176
     1
 90
        2
176
     1
 40
0.6
176
     1
 40
30.0
176
     1
 62
     7
420
 16777215
176
     1
 90
        0
176
     1
 90
        0
176
     1
 62
     7
176
     1
 62
   257
176
     1
 90
        1
176
     1
 90
        1
176
     1
 40
1.0
176
     1
 90
        0
176
     1
 62
     7
176
     1
 40
1.0
176
     1
 90
        1
176
     1
 90
        6
176
     1
 90
        2
176
     1
 62
     7
176
     1
 90
        5
176
     1
 90
        0
176
     1
 90
        0
176
     1
290
     0
176
     1
 90
       13
176
     1
 40
0.0
176
     1
 90
        0
176
     1
290
     0
176
     1
290
     1
176
     1
290
     1
176
     1
290
     0
176
     1
290
     0
176
     1
290
     0
176
     1
290
     0
176
     1
290
     0
176
     1
290
     0
176
     1
 90
       50
176
     1
 40
0.0
176
     1
 40
1.0
176
     1
 90
        0
176
     1
 62
    18
420
        0
176
     1
 90
       50
176
     1
 90
        3
176
     1
 62
     5
420
      255
176
     1
290
     0
176
     1
 90
       50
176
     1
 90
       50
176
     1
 90
       50
176
     1
290
     0
176
     1
 90
       50
176
     1
 62
   256
176
     0
 40
1.0
176
     0
 90
        2
176
     1
  1
strokes_ogs.tif
176
     1
290
     0
176
     1
 40
1.0
176
     1
 40
1.0
176
     1
  0
VISUALSTYLE
  5
2D
102
{ACAD_REACTORS
330
29
102
}
330
29
100
AcDbVisualStyle
  2
GouraudWithEdges
 70
     3
177
     3
291
     1
 70
    58
 90
        2
176
     1
 90
        2
176
     1
 90
        1
176
     1
 90
        2
176
     1
 40
0.6
176
     1
 40
30.0
176
     1
 62
     7
420
 16777215
176
     1
 90
        1
176
     1
 90
        0
176
     1
 62
     7
176
     1
 62
   257
176
     1
 90
        1
176
     1
 90
        1
176
     1
 40
1.0
176
     1
 90
        0
176
     1
 62
   257
176
     1
 40
1.0
176
     1
 90
        1
176
     1
 90
        6
176
     1
 90
        2
176
     1
 62
     7
176
     1
 90
        5
176
     1
 90
        0
176
     1
 90
        0
176
     1
290
     0
176
     1
 90
       13
176
     1
 40
0.0
176
     1
 90
        0
176
     1
290
     0
176
     1
290
     1
176
     1
290
     1
176
     1
290
     0
176
     1
290
     0
176
     1
290
     0
176
     1
290
     0
176
     1
290
     0
176
     1
290
     0
176
     1
 90
       50
176
     1
 40
0.0
176
     1
 40
1.0
176
     1
 90
        0
176
     1
 62
    18
420
        0
176
     1
 90
       50
176
     1
 90
        3
176
     1
 62
     5
420
      255
176
     1
290
     0
176
     1
 90
       50
176
     1
 90
       50
176
     1
 90
       50
176
     1
290
     0
176
     1
 90
       50
176
     1
 62
   256
176
     0
 40
1.0
176
     0
 90
        2
176
     1
  1
strokes_ogs.tif
176
     1
290
     0
176
     1
 40
1.0
176
     1
 40
1.0
176
     1
  0
VISUALSTYLE
  5
31
102
{ACAD_REACTORS
330
29
102
}
330
29
100
AcDbVisualStyle
  2
Hidden
 70
     6
177
     3
291
     0
 70
    58
 90
        1
176
     1
 90
        2
176
     1
 90
        2
176
     1
 90
        0
176
     1
 40
0.6
176
     1
 40
30.0
176
     1
 62
     7
420
 16777215
176
     1
 90
        2
176
     1
 90
        2
176
     1
 62
     7
176
     1
 62
   257
176
     1
 90
        2
176
     1
 90
        1
176
     1
 40
40.0
176
     1
 90
        0
176
     1
 62
   257
176
     1
 40
1.0
176
     1
 90
        1
176
     1
 90
        6
176
     1
 90
        2
176
     1
 62
     7
176
     1
 90
        3
176
     1
 90
        0
176
     1
 90
        0
176
     1
290
     0
176
     1
 90
        1
176
     1
 40
0.0
176
     1
 90
        0
176
     1
290
     0
176
     1
290
     1
176
     1
290
     1
176
     1
290
     0
176
     1
290
     0
176
     1
290
     0
176
     1
290
     0
176
     1
290
     0
176
     1
290
     0
176
     1
 90
       50
176
     1
 40
0.0
176
     1
 40
1.0
176
     1
 90
        0
176
     1
 62
    18
420
        0
176
     1
 90
       50
176
     1
 90
        3
176
     1
 62
     5
420
      255
176
     1
290
     0
176
     1
 90
       50
176
     1
 90
       50
176
     1
 90
       50
176
     1
290
     0
176
     1
 90
       50
176
     1
 62
   256
176
     0
 40
1.0
176
     0
 90
        2
176
     1
  1
strokes_ogs.tif
176
     1
290
     0
176
     1
 40
1.0
176
     1
 40
1.0
176
     1
  0
VISUALSTYLE
  5
3F
102
{ACAD_REACTORS
330
29
102
}
330
29
100
AcDbVisualStyle
  2
JitterOff
 70
    20
177
     3
291
     1
 70
    58
 90
        2
176
     0
 90
        2
176
     0
 90
        0
176
     0
 90
        0
176
     0
 40
0.6
176
     0
 40
30.0
176
     0
 62
     7
420
 16777215
176
     0
 90
        1
176
     0
 90
        4
176
     0
 62
     7
176
     0
 62
   257
176
     0
 90
        1
176
     0
 90
        1
176
     0
 40
1.0
176
     0
 90
       10
176
     2
 62
     7
176
     0
 40
1.0
176
     0
 90
        1
176
     0
 90
        6
176
     0
 90
        2
176
     0
 62
     7
176
     0
 90
        5
176
     0
 90
        0
176
     0
 90
        0
176
     0
290
     0
176
     0
 90
        1
176
     0
 40
0.0
176
     0
 90
        0
176
     0
290
     0
176
     0
290
     1
176
     0
290
     1
176
     0
290
     0
176
     0
290
     0
176
     0
290
     0
176
     0
290
     0
176
     0
290
     0
176
     0
290
     0
176
     0
 90
       50
176
     0
 40
0.0
176
     0
 40
1.0
176
     0
 90
        0
176
     0
 62
    18
420
        0
176
     0
 90
       50
176
     0
 90
        3
176
     0
 62
     5
420
      255
176
     0
290
     0
176
     0
 90
       50
176
     0
 90
       50
176
     0
 90
       50
176
     0
290
     0
176
     0
 90
       50
176
     0
 62
   256
176
     0
 40
1.0
176
     0
 90
        2
176
     0
  1
strokes_ogs.tif
176
     0
290
     0
176
     0
 40
1.0
176
     0
 40
1.0
176
     0
  0
VISUALSTYLE
  5
37
102
{ACAD_REACTORS
330
29
102
}
330
29
100
AcDbVisualStyle
  2
Linepattern
 70
    14
177
     3
291
     1
 70
    58
 90
        2
176
     1
 90
        2
176
     1
 90
        0
176
     1
 90
        0
176
     1
 40
0.6
176
     1
 40
30.0
176
     1
 62
     7
420
 16777215
176
     1
 90
        1
176
     1
 90
        4
176
     1
 62
     7
176
     1
 62
   257
176
     1
 90
        7
176
     1
 90
        7
176
     1
 40
1.0
176
     1
 90
        8
176
     1
 62
     7
176
     1
 40
1.0
176
     1
 90
        1
176
     1
 90
        6
176
     1
 90
        2
176
     1
 62
     7
176
     1
 90
        5
176
     1
 90
        0
176
     1
 90
        0
176
     1
290
     0
176
     1
 90
        1
176
     1
 40
0.0
176
     1
 90
        0
176
     1
290
     0
176
     1
290
     1
176
     1
290
     1
176
     1
290
     0
176
     1
290
     0
176
     1
290
     0
176
     1
290
     0
176
     1
290
     0
176
     1
290
     0
176
     1
 90
       50
176
     1
 40
0.0
176
     1
 40
1.0
176
     1
 90
        0
176
     1
 62
    18
420
        0
176
     1
 90
       50
176
     1
 90
        3
176
     1
 62
     5
420
      255
176
     1
290
     0
176
     1
 90
       50
176
     1
 90
       50
176
     1
 90
       50
176
     1
290
     0
176
     1
 90
       50
176
     1
 62
   256
176
     0
 40
1.0
176
     0
 90
        2
176
     1
  1
strokes_ogs.tif
176
     1
290
     0
176
     1
 40
1.0
176
     1
 40
1.0
176
     1
  0
VISUALSTYLE
  5
40
102
{ACAD_REACTORS
330
29
102
}
330
29
100
AcDbVisualStyle
  2
OverhangOff
 70
    21
177
     3
291
     1
 70
    58
 90
        2
176
     0
 90
        2
176
     0
 90
        0
176
     0
 90
        0
176
     0
 40
0.6
176
     0
 40
30.0
176
     0
 62
     7
420
 16777215
176
     0
 90
        1
176
     0
 90
        4
176
     0
 62
     7
176
     0
 62
   257
176
     0
 90
        1
176
     0
 90
        1
176
     0
 40
1.0
176
     0
 90
        9
176
     2
 62
     7
176
     0
 40
1.0
176
     0
 90
        1
176
     0
 90
        6
176
     0
 90
        2
176
     0
 62
     7
176
     0
 90
        5
176
     0
 90
        0
176
     0
 90
        0
176
     0
290
     0
176
     0
 90
        1
176
     0
 40
0.0
176
     0
 90
        0
176
     0
290
     0
176
     0
290
     1
176
     0
290
     1
176
     0
290
     0
176
     0
290
     0
176
     0
290
     0
176
     0
290
     0
176
     0
290
     0
176
     0
290
     0
176
     0
 90
       50
176
     0
 40
0.0
176
     0
 40
1.0
176
     0
 90
        0
176
     0
 62
    18
420
        0
176
     0
 90
       50
176
     0
 90
        3
176
     0
 62
     5
420
      255
176
     0
290
     0
176
     0
 90
       50
176
     0
 90
       50
176
     0
 90
       50
176
     0
290
     0
176
     0
 90
       50
176
     0
 62
   256
176
     0
 40
1.0
176
     0
 90
        2
176
     0
  1
strokes_ogs.tif
176
     0
290
     0
176
     0
 40
1.0
176
     0
 40
1.0
176
     0
  0
VISUALSTYLE
  5
33
102
{ACAD_REACTORS
330
29
102
}
330
29
100
AcDbVisualStyle
  2
Realistic
 70
     8
177
     3
291
     0
 70
    58
 90
        2
176
     1
 90
        3
176
     1
 90
        0
176
     1
 90
        2
176
     1
 40
0.6
176
     1
 40
30.0
176
     1
 62
     7
420
 16777215
176
     1
 90
        0
176
     1
 90
        0
176
     1
 62
     7
176
     1
 62
   257
176
     1
 90
        1
176
     1
 90
        1
176
     1
 40
1.0
176
     1
 90
        8
176
     1
 62
   257
176
     1
 40
1.0
176
     1
 90
        1
176
     1
 90
        6
176
     1
 90
        2
176
     1
 62
     7
176
     1
 90
        3
176
     1
 90
        0
176
     1
 90
        0
176
     1
290
     0
176
     1
 90
       13
176
     1
 40
0.0
176
     1
 90
        0
176
     1
290
     0
176
     1
290
     1
176
     1
290
     1
176
     1
290
     0
176
     1
290
     0
176
     1
290
     0
176
     1
290
     0
176
     1
290
     0
176
     1
290
     0
176
     1
 90
       50
176
     1
 40
0.0
176
     1
 40
1.0
176
     1
 90
        0
176
     1
 62
    18
420
        0
176
     1
 90
       50
176
     1
 90
        3
176
     1
 62
     5
420
      255
176
     1
290
     0
176
     1
 90
       50
176
     1
 90
       50
176
     1
 90
       50
176
     1
290
     0
176
     1
 90
       50
176
     1
 62
   256
176
     0
 40
1.0
176
     0
 90
        2
176
     1
  1
strokes_ogs.tif
176
     1
290
     0
176
     1
 40
1.0
176
     1
 40
1.0
176
     1
  0
VISUALSTYLE
  5
3E
102
{ACAD_REACTORS
330
29
102
}
330
29
100
AcDbVisualStyle
  2
Shaded
 70
    27
177
     3
291
     0
 70
    58
 90
        2
176
     1
 90
        2
176
     1
 90
        1
176
     1
 90
        2
176
     1
 40
0.6
176
     1
 40
30.0
176
     1
 62
     7
420
 16777215
176
     1
 90
        0
176
     1
 90
        4
176
     1
 62
     7
176
     1
 62
   257
176
     1
 90
        1
176
     1
 90
        1
176
     1
 40
1.0
176
     1
 90
        8
176
     1
 62
   257
176
     1
 40
1.0
176
     1
 90
        1
176
     1
 90
        6
176
     1
 90
        2
176
     1
 62
     8
420
  7895160
176
     1
 90
        3
176
     1
 90
        0
176
     1
 90
        0
176
     1
290
     0
176
     1
 90
        5
176
     1
 40
0.0
176
     1
 90
        0
176
     1
290
     0
176
     1
290
     1
176
     1
290
     1
176
     1
290
     0
176
     1
290
     0
176
     1
290
     0
176
     1
290
     0
176
     1
290
     0
176
     1
290
     0
176
     1
 90
       50
176
     1
 40
0.0
176
     1
 40
1.0
176
     1
 90
        0
176
     1
 62
    18
420
        0
176
     1
 90
       50
176
     1
 90
        3
176
     1
 62
     5
420
      255
176
     1
290
     0
176
     1
 90
       50
176
     1
 90
       50
176
     1
 90
       50
176
     1
290
     0
176
     1
 90
       50
176
     1
 62
   256
176
     0
 40
1.0
176
     0
 90
        2
176
     1
  1
strokes_ogs.tif
176
     1
290
     0
176
     1
 40
1.0
176
     1
 40
1.0
176
     1
  0
VISUALSTYLE
  5
3D
102
{ACAD_REACTORS
330
29
102
}
330
29
100
AcDbVisualStyle
  2
Shaded with edges
 70
    26
177
     3
291
     0
 70
    58
 90
        2
176
     1
 90
        2
176
     1
 90
        1
176
     1
 90
        2
176
     1
 40
0.6
176
     1
 40
30.0
176
     1
 62
     7
420
 16777215
176
     1
 90
        1
176
     1
 90
       10
176
     1
 62
     7
176
     1
 62
   257
176
     1
 90
        2
176
     1
 90
        1
176
     1
 40
1.0
176
     1
 90
        8
176
     1
 62
   257
176
     1
 40
1.0
176
     1
 90
        1
176
     1
 90
        6
176
     1
 90
        2
176
     1
 62
     7
176
     1
 90
        3
176
     1
 90
        0
176
     1
 90
        0
176
     1
290
     0
176
     1
 90
        5
176
     1
 40
0.0
176
     1
 90
        0
176
     1
290
     0
176
     1
290
     1
176
     1
290
     1
176
     1
290
     0
176
     1
290
     0
176
     1
290
     0
176
     1
290
     0
176
     1
290
     0
176
     1
290
     0
176
     1
 90
       50
176
     1
 40
0.0
176
     1
 40
1.0
176
     1
 90
        0
176
     1
 62
    18
420
        0
176
     1
 90
       50
176
     1
 90
        3
176
     1
 62
     5
420
      255
176
     1
290
     0
176
     1
 90
       50
176
     1
 90
       50
176
     1
 90
       50
176
     1
290
     0
176
     1
 90
       50
176
     1
 62
   256
176
     0
 40
1.0
176
     0
 90
        2
176
     1
  1
strokes_ogs.tif
176
     1
290
     0
176
     1
 40
1.0
176
     1
 40
1.0
176
     1
  0
VISUALSTYLE
  5
3A
102
{ACAD_REACTORS
330
29
102
}
330
29
100
AcDbVisualStyle
  2
Shades of Gray
 70
    23
177
     3
291
     0
 70
    58
 90
        2
176
     1
 90
        2
176
     1
 90
        3
176
     1
 90
        0
176
     1
 40
0.6
176
     1
 40
30.0
176
     1
 62
     7
420
 16777215
176
     1
 90
        2
176
     1
 90
        2
176
     1
 62
     7
176
     1
 62
     7
176
     1
 90
        1
176
     1
 90
        1
176
     1
 40
40.0
176
     1
 90
        8
176
     1
 62
     7
176
     1
 40
1.0
176
     1
 90
        1
176
     1
 90
        6
176
     1
 90
        2
176
     1
 62
     7
176
     1
 90
        3
176
     1
 90
        0
176
     1
 90
        0
176
     1
290
     0
176
     1
 90
        1
176
     1
 40
0.0
176
     1
 90
        0
176
     1
290
     0
176
     1
290
     1
176
     1
290
     1
176
     1
290
     0
176
     1
290
     0
176
     1
290
     0
176
     1
290
     0
176
     1
290
     0
176
     1
290
     0
176
     1
 90
       50
176
     1
 40
0.0
176
     1
 40
1.0
176
     1
 90
        0
176
     1
 62
    18
420
        0
176
     1
 90
       50
176
     1
 90
        3
176
     1
 62
     5
420
      255
176
     1
290
     0
176
     1
 90
       50
176
     1
 90
       50
176
     1
 90
       50
176
     1
290
     0
176
     1
 90
       50
176
     1
 62
   256
176
     0
 40
1.0
176
     0
 90
        2
176
     1
  1
strokes_ogs.tif
176
     1
290
     0
176
     1
 40
1.0
176
     1
 40
1.0
176
     1
  0
VISUALSTYLE
  5
3B
102
{ACAD_REACTORS
330
29
102
}
330
29
100
AcDbVisualStyle
  2
Sketchy
 70
    24
177
     3
291
     0
 70
    58
 90
        1
176
     1
 90
        2
176
     1
 90
        2
176
     1
 90
        0
176
     1
 40
0.6
176
     1
 40
30.0
176
     1
 62
     7
420
 16777215
176
     1
 90
        2
176
     1
 90
        2
176
     1
 62
     7
176
     1
 62
     7
176
     1
 90
        1
176
     1
 90
        1
176
     1
 40
40.0
176
     1
 90
       11
176
     1
 62
     7
176
     1
 40
1.0
176
     1
 90
        1
176
     1
 90
        6
176
     1
 90
        2
176
     1
 62
     7
176
     1
 90
        6
176
     1
 90
        0
176
     1
 90
        0
176
     1
290
     0
176
     1
 90
        1
176
     1
 40
0.0
176
     1
 90
        0
176
     1
290
     0
176
     1
290
     1
176
     1
290
     1
176
     1
290
     0
176
     1
290
     0
176
     1
290
     0
176
     1
290
     0
176
     1
290
     0
176
     1
290
     0
176
     1
 90
       50
176
     1
 40
0.0
176
     1
 40
1.0
176
     1
 90
        0
176
     1
 62
    18
420
        0
176
     1
 90
       50
176
     1
 90
        3
176
     1
 62
     5
420
      255
176
     1
290
     0
176
     1
 90
       50
176
     1
 90
       50
176
     1
 90
       50
176
     1
290
     0
176
     1
 90
       50
176
     1
 62
   256
176
     0
 40
1.0
176
     0
 90
        2
176
     1
  1
strokes_ogs.tif
176
     1
290
     0
176
     1
 40
1.0
176
     1
 40
1.0
176
     1
  0
VISUALSTYLE
  5
36
102
{ACAD_REACTORS
330
29
102
}
330
29
100
AcDbVisualStyle
  2
Thicken
 70
    13
177
     3
291
     1
 70
    58
 90
        2
176
     1
 90
        2
176
     1
 90
        0
176
     1
 90
        0
176
     1
 40
0.6
176
     1
 40
30.0
176
     1
 62
     7
420
 16777215
176
     1
 90
        1
176
     1
 90
        4
176
     1
 62
     7
176
     1
 62
   257
176
     1
 90
        1
176
     1
 90
        1
176
     1
 40
1.0
176
     1
 90
       12
176
     1
 62
     7
176
     1
 40
1.0
176
     1
 90
        1
176
     1
 90
        6
176
     1
 90
        2
176
     1
 62
     7
176
     1
 90
        5
176
     1
 90
        0
176
     1
 90
        0
176
     1
290
     0
176
     1
 90
        1
176
     1
 40
0.0
176
     1
 90
        0
176
     1
290
     0
176
     1
290
     1
176
     1
290
     1
176
     1
290
     0
176
     1
290
     0
176
     1
290
     0
176
     1
290
     0
176
     1
290
     0
176
     1
290
     0
176
     1
 90
       50
176
     1
 40
0.0
176
     1
 40
1.0
176
     1
 90
        0
176
     1
 62
    18
420
        0
176
     1
 90
       50
176
     1
 90
        3
176
     1
 62
     5
420
      255
176
     1
290
     0
176
     1
 90
       50
176
     1
 90
       50
176
     1
 90
       50
176
     1
290
     0
176
     1
 90
       50
176
     1
 62
   256
176
     0
 40
1.0
176
     0
 90
        2
176
     1
  1
strokes_ogs.tif
176
     1
290
     0
176
     1
 40
1.0
176
     1
 40
1.0
176
     1
  0
VISUALSTYLE
  5
30
102
{ACAD_REACTORS
330
29
102
}
330
29
100
AcDbVisualStyle
  2
Wireframe
 70
     5
177
     3
291
     0
 70
    58
 90
        0
176
     1
 90
        2
176
     1
 90
        0
176
     1
 90
        0
176
     1
 40
0.6
176
     1
 40
30.0
176
     1
 62
     7
420
 16777215
176
     1
 90
        1
176
     1
 90
        4
176
     1
 62
     7
176
     1
 62
   257
176
     1
 90
        1
176
     1
 90
        1
176
     1
 40
1.0
176
     1
 90
        0
176
     1
 62
   257
176
     1
 40
1.0
176
     1
 90
        1
176
     1
 90
        6
176
     1
 90
        2
176
     1
 62
     7
176
     1
 90
        3
176
     1
 90
        0
176
     1
 90
        0
176
     1
290
     0
176
     1
 90
        1
176
     1
 40
0.0
176
     1
 90
        0
176
     1
290
     0
176
     1
290
     1
176
     1
290
     1
176
     1
290
     0
176
     1
290
     0
176
     1
290
     0
176
     1
290
     0
176
     1
290
     0
176
     1
290
     0
176
     1
 90
       50
176
     1
 40
0.0
176
     1
 40
1.0
176
     1
 90
        0
176
     1
 62
    18
420
        0
176
     1
 90
       50
176
     1
 90
        3
176
     1
 62
     5
420
      255
176
     1
290
     0
176
     1
 90
       50
176
     1
 90
       50
176
     1
 90
       50
176
     1
290
     0
176
     1
 90
       50
176
     1
 62
   256
176
     0
 40
1.0
176
     0
 90
        2
176
     1
  1
strokes_ogs.tif
176
     1
290
     0
176
     1
 40
1.0
176
     1
 40
1.0
176
     1
  0
VISUALSTYLE
  5
3C
102
{ACAD_REACTORS
330
29
102
}
330
29
100
AcDbVisualStyle
  2
X-Ray
 70
    25
177
     3
291
     0
 70
    58
 90
        2
176
     1
 90
        2
176
     1
 90
        1
176
     1
 90
        1
176
     1
 40
0.5
176
     1
 40
30.0
176
     1
 62
     7
420
 16777215
176
     1
 90
        1
176
     1
 90
        0
176
     1
 62
     7
176
     1
 62
   257
176
     1
 90
        1
176
     1
 90
        1
176
     1
 40
1.0
176
     1
 90
        8
176
     1
 62
     7
176
     1
 40
1.0
176
     1
 90
        1
176
     1
 90
        6
176
     1
 90
        2
176
     1
 62
     7
176
     1
 90
        3
176
     1
 90
        0
176
     1
 90
        0
176
     1
290
     0
176
     1
 90
       13
176
     1
 40
0.0
176
     1
 90
        0
176
     1
290
     0
176
     1
290
     1
176
     1
290
     1
176
     1
290
     0
176
     1
290
     0
176
     1
290
     0
176
     1
290
     0
176
     1
290
     0
176
     1
290
     0
176
     1
 90
       50
176
     1
 40
0.0
176
     1
 40
1.0
176
     1
 90
        0
176
     1
 62
    18
420
        0
176
     1
 90
       50
176
     1
 90
        3
176
     1
 62
     5
420
      255
176
     1
290
     0
176
     1
 90
       50
176
     1
 90
       50
176
     1
 90
       50
176
     1
290
     0
176
     1
 90
       50
176
     1
 62
   256
176
     0
 40
1.0
176
     0
 90
        2
176
     1
  1
strokes_ogs.tif
176
     1
290
     0
176
     1
 40
1.0
176
     1
 40
1.0
176
     1
  0
DICTIONARYVAR
  5
81
102
{ACAD_REACTORS
330
7C
102
}
330
7C
100
DictionaryVariables
280
     0
  1
1:1
  0
DICTIONARYVAR
  5
7E
102
{ACAD_REACTORS
330
7C
102
}
330
7C
100
DictionaryVariables
280
     0
  1
STANDARD
  0
DICTIONARYVAR
  5
7D
102
{ACAD_REACTORS
330
7C
102
}
330
7C
100
DictionaryVariables
280
     0
  1
STANDARD
  0
DICTIONARYVAR
  5
7F
102
{ACAD_REACTORS
330
7C
102
}
330
7C
100
DictionaryVariables
280
     0
  1
Imperial24
  0
DICTIONARYVAR
  5
80
102
{ACAD_REACTORS
330
7C
102
}
330
7C
100
DictionaryVariables
280
     0
  1
Imperial24
  0
XRECORD
  5
2ED
102
{ACAD_REACTORS
330
2E9
102
}
330
2E9
100
AcDbXrecord
280
     1
  1
BUILDING_ID
  1
Progetto per test valvole
  1
FLOOR_ID
  1
694395
  0
XRECORD
  5
2EB
102
{ACAD_REACTORS
330
2E9
102
}
330
2E9
100
AcDbXrecord
280
     1
  1
-2001160
  1
Apparecchi idraulici
  0
XRECORD
  5
2EC
102
{ACAD_REACTORS
330
2E9
102
}
330
2E9
100
AcDbXrecord
280
     1
  1
790271
  1
Body
  1
856288
  1
Lever
  0
XRECORD
  5
2EA
102
{ACAD_REACTORS
330
2E9
102
}
330
2E9
100
AcDbXrecord
280
     1
  1
859151
  1
Automatic flow rate regulator valve_Caleffi_121 DN15 : 1/2''
  0
DICTIONARY
  5
1A
330
19
100
AcDbDictionary
280
     1
281
     1
  3
BUMPTILE
360
1C
  3
DIFFUSETILE
360
1B
  3
OPACITYTILE
360
1F
  3
REFLECTIONTILE
360
1E
  3
REFRACTIONTILE
360
20
  3
SPECULARTILE
360
1D
  0
DICTIONARY
  5
12
330
11
100
AcDbDictionary
280
     1
281
     1
  3
BUMPTILE
360
14
  3
DIFFUSETILE
360
13
  3
OPACITYTILE
360
17
  3
REFLECTIONTILE
360
16
  3
REFRACTIONTILE
360
18
  3
SPECULARTILE
360
15
  0
DICTIONARY
  5
22
330
21
100
AcDbDictionary
280
     1
281
     1
  3
BUMPTILE
360
24
  3
DIFFUSETILE
360
23
  3
OPACITYTILE
360
27
  3
REFLECTIONTILE
360
26
  3
REFRACTIONTILE
360
28
  3
SPECULARTILE
360
25
  0
DICTIONARY
  5
2F0
330
65
100
AcDbDictionary
280
     1
281
     1
  3
ACAD_ROUNDTRIP_2008_TABLESTYLE_CELLSTYLEMAP
360
2F1
  0
XRECORD
  5
1C
102
{ACAD_REACTORS
330
1A
102
}
330
1A
100
AcDbXrecord
280
     1
270
     1
271
     1
  0
XRECORD
  5
1B
102
{ACAD_REACTORS
330
1A
102
}
330
1A
100
AcDbXrecord
280
     1
270
     1
271
     1
  0
XRECORD
  5
1F
102
{ACAD_REACTORS
330
1A
102
}
330
1A
100
AcDbXrecord
280
     1
270
     1
271
     1
  0
XRECORD
  5
1E
102
{ACAD_REACTORS
330
1A
102
}
330
1A
100
AcDbXrecord
280
     1
270
     1
271
     1
  0
XRECORD
  5
20
102
{ACAD_REACTORS
330
1A
102
}
330
1A
100
AcDbXrecord
280
     1
270
     1
271
     1
  0
XRECORD
  5
1D
102
{ACAD_REACTORS
330
1A
102
}
330
1A
100
AcDbXrecord
280
     1
270
     1
271
     1
  0
XRECORD
  5
14
102
{ACAD_REACTORS
330
12
102
}
330
12
100
AcDbXrecord
280
     1
270
     1
271
     1
  0
XRECORD
  5
13
102
{ACAD_REACTORS
330
12
102
}
330
12
100
AcDbXrecord
280
     1
270
     1
271
     1
  0
XRECORD
  5
17
102
{ACAD_REACTORS
330
12
102
}
330
12
100
AcDbXrecord
280
     1
270
     1
271
     1
  0
XRECORD
  5
16
102
{ACAD_REACTORS
330
12
102
}
330
12
100
AcDbXrecord
280
     1
270
     1
271
     1
  0
XRECORD
  5
18
102
{ACAD_REACTORS
330
12
102
}
330
12
100
AcDbXrecord
280
     1
270
     1
271
     1
  0
XRECORD
  5
15
102
{ACAD_REACTORS
330
12
102
}
330
12
100
AcDbXrecord
280
     1
270
     1
271
     1
  0
XRECORD
  5
24
102
{ACAD_REACTORS
330
22
102
}
330
22
100
AcDbXrecord
280
     1
270
     1
271
     1
  0
XRECORD
  5
23
102
{ACAD_REACTORS
330
22
102
}
330
22
100
AcDbXrecord
280
     1
270
     1
271
     1
  0
XRECORD
  5
27
102
{ACAD_REACTORS
330
22
102
}
330
22
100
AcDbXrecord
280
     1
270
     1
271
     1
  0
XRECORD
  5
26
102
{ACAD_REACTORS
330
22
102
}
330
22
100
AcDbXrecord
280
     1
270
     1
271
     1
  0
XRECORD
  5
28
102
{ACAD_REACTORS
330
22
102
}
330
22
100
AcDbXrecord
280
     1
270
     1
271
     1
  0
XRECORD
  5
25
102
{ACAD_REACTORS
330
22
102
}
330
22
100
AcDbXrecord
280
     1
270
     1
271
     1
  0
CELLSTYLEMAP
  5
2F1
102
{ACAD_REACTORS
330
2F0
102
}
330
2F0
100
AcDbCellStyleMap
 90
        3
300
CELLSTYLE
  1
TABLEFORMAT_BEGIN
 90
        5
170
     1
 91
        0
 92
    32768
 62
   257
 93
        1
300
CONTENTFORMAT
  1
CONTENTFORMAT_BEGIN
 90
        0
 91
        0
 92
      512
 93
        0
300

 40
0.0
140
1.0
 94
        5
 62
     0
340
55
144
0.25
309
CONTENTFORMAT_END
171
     0
 94
        0
309
TABLEFORMAT_END
  1
CELLSTYLE_BEGIN
 90
        1
 91
        1
300
_TITLE
309
CELLSTYLE_END
300
CELLSTYLE
  1
TABLEFORMAT_BEGIN
 90
        5
170
     1
 91
        0
 92
        0
 62
   257
 93
        1
300
CONTENTFORMAT
  1
CONTENTFORMAT_BEGIN
 90
        0
 91
        0
 92
      512
 93
        0
300

 40
0.0
140
1.0
 94
        5
 62
     0
340
55
144
0.18
309
CONTENTFORMAT_END
171
     0
 94
        0
309
TABLEFORMAT_END
  1
CELLSTYLE_BEGIN
 90
        2
 91
        1
300
_HEADER
309
CELLSTYLE_END
300
CELLSTYLE
  1
TABLEFORMAT_BEGIN
 90
        5
170
     1
 91
        0
 92
        0
 62
   257
 93
        1
300
CONTENTFORMAT
  1
CONTENTFORMAT_BEGIN
 90
        0
 91
        0
 92
      512
 93
        0
300

 40
0.0
140
1.0
 94
        2
 62
     0
340
55
144
0.18
309
CONTENTFORMAT_END
171
     0
 94
        0
309
TABLEFORMAT_END
  1
CELLSTYLE_BEGIN
 90
        3
 91
        2
300
_DATA
309
CELLSTYLE_END
  0
ENDSEC
  0
EOF
