  0
SECTION
  2
HEADER
  9
$ACADVER
  1
AC1027
  9
$ACADMAINTVER
 70
    20
  9
$DWGCODEPAGE
  3
ANSI_1252
  9
$REQUIREDVERSIONS
160
                 0
  9
$INSBASE
 10
0.0
 20
0.0
 30
0.0
  9
$EXTMIN
 10
632.0630805144225
 20
1787.245878720052
 30
-0.00000001
  9
$EXTMAX
 10
1086.114353953097
 20
2029.999999999995
 30
0.00000001
  9
$LIMMIN
 10
0.0
 20
0.0
  9
$LIMMAX
 10
12.0
 20
9.0
  9
$ORTHOMODE
 70
     0
  9
$REGENMODE
 70
     1
  9
$FILLMODE
 70
     1
  9
$QTEXTMODE
 70
     0
  9
$MIRRTEXT
 70
     0
  9
$LTSCALE
 40
1.0
  9
$ATTMODE
 70
     1
  9
$TEXTSIZE
 40
0.2
  9
$TRACEWID
 40
0.05
  9
$TEXTSTYLE
  7
Standard
  9
$CLAYER
  8
0
  9
$CELTYPE
  6
ByLayer
  9
$CECOLOR
 62
   256
  9
$CELTSCALE
 40
1.0
  9
$DISPSILH
 70
     0
  9
$DIMSCALE
 40
1.0
  9
$DIMASZ
 40
0.18
  9
$DIMEXO
 40
0.0625
  9
$DIMDLI
 40
0.38
  9
$DIMRND
 40
0.0
  9
$DIMDLE
 40
0.0
  9
$DIMEXE
 40
0.18
  9
$DIMTP
 40
0.0
  9
$DIMTM
 40
0.0
  9
$DIMTXT
 40
0.18
  9
$DIMCEN
 40
0.09
  9
$DIMTSZ
 40
0.0
  9
$DIMTOL
 70
     0
  9
$DIMLIM
 70
     0
  9
$DIMTIH
 70
     1
  9
$DIMTOH
 70
     1
  9
$DIMSE1
 70
     0
  9
$DIMSE2
 70
     0
  9
$DIMTAD
 70
     0
  9
$DIMZIN
 70
     0
  9
$DIMBLK
  1

  9
$DIMASO
 70
     1
  9
$DIMSHO
 70
     1
  9
$DIMPOST
  1

  9
$DIMAPOST
  1

  9
$DIMALT
 70
     0
  9
$DIMALTD
 70
     2
  9
$DIMALTF
 40
25.4
  9
$DIMLFAC
 40
1.0
  9
$DIMTOFL
 70
     0
  9
$DIMTVP
 40
0.0
  9
$DIMTIX
 70
     0
  9
$DIMSOXD
 70
     0
  9
$DIMSAH
 70
     0
  9
$DIMBLK1
  1

  9
$DIMBLK2
  1

  9
$DIMSTYLE
  2
Standard
  9
$DIMCLRD
 70
     0
  9
$DIMCLRE
 70
     0
  9
$DIMCLRT
 70
     0
  9
$DIMTFAC
 40
1.0
  9
$DIMGAP
 40
0.09
  9
$DIMJUST
 70
     0
  9
$DIMSD1
 70
     0
  9
$DIMSD2
 70
     0
  9
$DIMTOLJ
 70
     1
  9
$DIMTZIN
 70
     0
  9
$DIMALTZ
 70
     0
  9
$DIMALTTZ
 70
     0
  9
$DIMUPT
 70
     0
  9
$DIMDEC
 70
     4
  9
$DIMTDEC
 70
     4
  9
$DIMALTU
 70
     2
  9
$DIMALTTD
 70
     2
  9
$DIMTXSTY
  7
Standard
  9
$DIMAUNIT
 70
     0
  9
$DIMADEC
 70
     0
  9
$DIMALTRND
 40
0.0
  9
$DIMAZIN
 70
     0
  9
$DIMDSEP
 70
    46
  9
$DIMATFIT
 70
     3
  9
$DIMFRAC
 70
     0
  9
$DIMLDRBLK
  1

  9
$DIMLUNIT
 70
     2
  9
$DIMLWD
 70
    -2
  9
$DIMLWE
 70
    -2
  9
$DIMTMOVE
 70
     0
  9
$DIMFXL
 40
1.0
  9
$DIMFXLON
 70
     0
  9
$DIMJOGANG
 40
0.7853981633974483
  9
$DIMTFILL
 70
     0
  9
$DIMTFILLCLR
 70
     0
  9
$DIMARCSYM
 70
     0
  9
$DIMLTYPE
  6

  9
$DIMLTEX1
  6

  9
$DIMLTEX2
  6

  9
$DIMTXTDIRECTION
 70
     0
  9
$LUNITS
 70
     2
  9
$LUPREC
 70
     4
  9
$SKETCHINC
 40
0.1
  9
$FILLETRAD
 40
0.0
  9
$AUNITS
 70
     0
  9
$AUPREC
 70
     0
  9
$MENU
  1
.
  9
$ELEVATION
 40
0.0
  9
$PELEVATION
 40
0.0
  9
$THICKNESS
 40
0.0
  9
$LIMCHECK
 70
     0
  9
$CHAMFERA
 40
0.0
  9
$CHAMFERB
 40
0.0
  9
$CHAMFERC
 40
0.0
  9
$CHAMFERD
 40
0.0
  9
$SKPOLY
 70
     0
  9
$TDCREATE
 40
2457540.405451644
  9
$TDUCREATE
 40
2457540.322118310
  9
$TDUPDATE
 40
2457540.405451644
  9
$TDUUPDATE
 40
2457540.322118310
  9
$TDINDWG
 40
0.0000121296
  9
$TDUSRTIMER
 40
0.0000121296
  9
$USRTIMER
 70
     1
  9
$ANGBASE
 50
0.0
  9
$ANGDIR
 70
     0
  9
$PDMODE
 70
     0
  9
$PDSIZE
 40
0.0
  9
$PLINEWID
 40
0.0
  9
$SPLFRAME
 70
     0
  9
$SPLINETYPE
 70
     6
  9
$SPLINESEGS
 70
     8
  9
$HANDSEED
  5
28B
  9
$SURFTAB1
 70
     6
  9
$SURFTAB2
 70
     6
  9
$SURFTYPE
 70
     6
  9
$SURFU
 70
     6
  9
$SURFV
 70
     6
  9
$UCSBASE
  2

  9
$UCSNAME
  2

  9
$UCSORG
 10
0.0
 20
0.0
 30
0.0
  9
$UCSXDIR
 10
1.0
 20
0.0
 30
0.0
  9
$UCSYDIR
 10
0.0
 20
1.0
 30
0.0
  9
$UCSORTHOREF
  2

  9
$UCSORTHOVIEW
 70
     0
  9
$UCSORGTOP
 10
0.0
 20
0.0
 30
0.0
  9
$UCSORGBOTTOM
 10
0.0
 20
0.0
 30
0.0
  9
$UCSORGLEFT
 10
0.0
 20
0.0
 30
0.0
  9
$UCSORGRIGHT
 10
0.0
 20
0.0
 30
0.0
  9
$UCSORGFRONT
 10
0.0
 20
0.0
 30
0.0
  9
$UCSORGBACK
 10
0.0
 20
0.0
 30
0.0
  9
$PUCSBASE
  2

  9
$PUCSNAME
  2

  9
$PUCSORG
 10
0.0
 20
0.0
 30
0.0
  9
$PUCSXDIR
 10
1.0
 20
0.0
 30
0.0
  9
$PUCSYDIR
 10
0.0
 20
1.0
 30
0.0
  9
$PUCSORTHOREF
  2

  9
$PUCSORTHOVIEW
 70
     0
  9
$PUCSORGTOP
 10
0.0
 20
0.0
 30
0.0
  9
$PUCSORGBOTTOM
 10
0.0
 20
0.0
 30
0.0
  9
$PUCSORGLEFT
 10
0.0
 20
0.0
 30
0.0
  9
$PUCSORGRIGHT
 10
0.0
 20
0.0
 30
0.0
  9
$PUCSORGFRONT
 10
0.0
 20
0.0
 30
0.0
  9
$PUCSORGBACK
 10
0.0
 20
0.0
 30
0.0
  9
$USERI1
 70
     0
  9
$USERI2
 70
     0
  9
$USERI3
 70
     0
  9
$USERI4
 70
     0
  9
$USERI5
 70
     0
  9
$USERR1
 40
0.0
  9
$USERR2
 40
0.0
  9
$USERR3
 40
0.0
  9
$USERR4
 40
0.0
  9
$USERR5
 40
0.0
  9
$WORLDVIEW
 70
     1
  9
$SHADEDGE
 70
     3
  9
$SHADEDIF
 70
    70
  9
$TILEMODE
 70
     1
  9
$MAXACTVP
 70
    64
  9
$PINSBASE
 10
0.0
 20
0.0
 30
0.0
  9
$PLIMCHECK
 70
     0
  9
$PEXTMIN
 10
1.000000000000000E+20
 20
1.000000000000000E+20
 30
1.000000000000000E+20
  9
$PEXTMAX
 10
-1.000000000000000E+20
 20
-1.000000000000000E+20
 30
-1.000000000000000E+20
  9
$PLIMMIN
 10
0.0
 20
0.0
  9
$PLIMMAX
 10
12.0
 20
9.0
  9
$UNITMODE
 70
     0
  9
$VISRETAIN
 70
     1
  9
$PLINEGEN
 70
     0
  9
$PSLTSCALE
 70
     1
  9
$TREEDEPTH
 70
  3020
  9
$CMLSTYLE
  2
Standard
  9
$CMLJUST
 70
     0
  9
$CMLSCALE
 40
1.0
  9
$PROXYGRAPHICS
 70
     1
  9
$MEASUREMENT
 70
     1
  9
$CELWEIGHT
370
    -1
  9
$ENDCAPS
280
     0
  9
$JOINSTYLE
280
     0
  9
$LWDISPLAY
290
     0
  9
$INSUNITS
 70
     4
  9
$HYPERLINKBASE
  1

  9
$STYLESHEET
  1

  9
$XEDIT
290
     1
  9
$CEPSNTYPE
380
     0
  9
$PSTYLEMODE
290
     1
  9
$FINGERPRINTGUID
  2
{0F1409DB-1A62-453F-97BA-7448B24675C7}
  9
$VERSIONGUID
  2
{C5BDA78B-5F9B-4596-83F4-84549FFE15F6}
  9
$EXTNAMES
290
     1
  9
$PSVPSCALE
 40
0.0
  9
$OLESTARTUP
290
     0
  9
$SORTENTS
280
   127
  9
$INDEXCTL
280
     0
  9
$HIDETEXT
280
     1
  9
$XCLIPFRAME
280
     2
  9
$HALOGAP
280
     0
  9
$OBSCOLOR
 70
   257
  9
$OBSLTYPE
280
     0
  9
$INTERSECTIONDISPLAY
280
     0
  9
$INTERSECTIONCOLOR
 70
   257
  9
$DIMASSOC
280
     2
  9
$PROJECTNAME
  1

  9
$CAMERADISPLAY
290
     0
  9
$LENSLENGTH
 40
50.0
  9
$CAMERAHEIGHT
 40
0.0
  9
$STEPSPERSEC
 40
2.0
  9
$STEPSIZE
 40
6.0
  9
$3DDWFPREC
 40
2.0
  9
$PSOLWIDTH
 40
0.25
  9
$PSOLHEIGHT
 40
4.0
  9
$LOFTANG1
 40
1.570796326794896
  9
$LOFTANG2
 40
1.570796326794896
  9
$LOFTMAG1
 40
0.0
  9
$LOFTMAG2
 40
0.0
  9
$LOFTPARAM
 70
     7
  9
$LOFTNORMALS
280
     1
  9
$LATITUDE
 40
37.795
  9
$LONGITUDE
 40
-122.394
  9
$NORTHDIRECTION
 40
0.0
  9
$TIMEZONE
 70
 -8000
  9
$LIGHTGLYPHDISPLAY
280
     1
  9
$TILEMODELIGHTSYNCH
280
     1
  9
$CMATERIAL
347
11
  9
$SOLIDHIST
280
     0
  9
$SHOWHIST
280
     1
  9
$DWFFRAME
280
     2
  9
$DGNFRAME
280
     0
  9
$REALWORLDSCALE
290
     1
  9
$INTERFERECOLOR
 62
     1
  9
$INTERFEREOBJVS
345
33
  9
$INTERFEREVPVS
346
30
  9
$CSHADOW
280
     0
  9
$SHADOWPLANELOCATION
 40
0.0
  0
ENDSEC
  0
SECTION
  2
CLASSES
  0
CLASS
  1
ACDBDICTIONARYWDFLT
  2
AcDbDictionaryWithDefault
  3
ObjectDBX Classes
 90
        0
 91
        1
280
     0
281
     0
  0
CLASS
  1
MATERIAL
  2
AcDbMaterial
  3
ObjectDBX Classes
 90
     1153
 91
        3
280
     0
281
     0
  0
CLASS
  1
VISUALSTYLE
  2
AcDbVisualStyle
  3
ObjectDBX Classes
 90
     4095
 91
       24
280
     0
281
     0
  0
CLASS
  1
SCALE
  2
AcDbScale
  3
ObjectDBX Classes
 90
     1153
 91
       17
280
     0
281
     0
  0
CLASS
  1
TABLESTYLE
  2
AcDbTableStyle
  3
ObjectDBX Classes
 90
     4095
 91
        1
280
     0
281
     0
  0
CLASS
  1
MLEADERSTYLE
  2
AcDbMLeaderStyle
  3
ACDB_MLEADERSTYLE_CLASS
 90
     4095
 91
        1
280
     0
281
     0
  0
CLASS
  1
ACDBSECTIONVIEWSTYLE
  2
AcDbSectionViewStyle
  3
ObjectDBX Classes
 90
     1025
 91
        1
280
     0
281
     0
  0
CLASS
  1
ACDBDETAILVIEWSTYLE
  2
AcDbDetailViewStyle
  3
ObjectDBX Classes
 90
     1025
 91
        1
280
     0
281
     0
  0
CLASS
  1
RASTERVARIABLES
  2
AcDbRasterVariables
  3
ISM
 90
        0
 91
        1
280
     0
281
     0
  0
CLASS
  1
DICTIONARYVAR
  2
AcDbDictionaryVar
  3
ObjectDBX Classes
 90
        0
 91
        5
280
     0
281
     0
  0
CLASS
  1
CELLSTYLEMAP
  2
AcDbCellStyleMap
  3
ObjectDBX Classes
 90
     1152
 91
        2
280
     0
281
     0
  0
CLASS
  1
SORTENTSTABLE
  2
AcDbSortentsTable
  3
ObjectDBX Classes
 90
        0
 91
        1
280
     0
281
     0
  0
ENDSEC
  0
SECTION
  2
TABLES
  0
TABLE
  2
VPORT
  5
8
330
0
100
AcDbSymbolTable
 70
     1
  0
VPORT
  5
57
330
8
100
AcDbSymbolTableRecord
100
AcDbViewportTableRecord
  2
*Active
 70
     0
 10
0.0
 20
0.0
 11
1.0
 21
1.0
 12
859.0887172337595
 22
1908.622939360024
 13
0.0
 23
0.0
 14
1.0
 24
1.0
 15
0.0
 25
0.0
 16
0.0
 26
0.0
 36
1.0
 17
0.0
 27
0.0
 37
0.0
 40
242.7541212799429
 41
1.8704163333856
 42
50.0
 43
0.0
 44
0.0
 50
0.0
 51
0.0
 71
     0
 72
  1000
 73
     1
 74
     1
 75
     0
 76
     0
 77
     0
 78
     0
281
     0
 65
     1
110
0.0
120
0.0
130
0.0
111
1.0
121
0.0
131
0.0
112
0.0
122
1.0
132
0.0
 79
     0
146
0.0
 60
     3
 61
     5
292
     1
282
     1
141
0.0
142
0.0
 63
   250
421
  3355443
  0
ENDTAB
  0
TABLE
  2
LTYPE
  5
5
330
0
100
AcDbSymbolTable
 70
     3
  0
LTYPE
  5
5B
330
5
100
AcDbSymbolTableRecord
100
AcDbLinetypeTableRecord
  2
ByBlock
 70
     0
  3

 72
    65
 73
     0
 40
0.0
  0
LTYPE
  5
5C
330
5
100
AcDbSymbolTableRecord
100
AcDbLinetypeTableRecord
  2
ByLayer
 70
     0
  3

 72
    65
 73
     0
 40
0.0
  0
LTYPE
  5
5D
330
5
100
AcDbSymbolTableRecord
100
AcDbLinetypeTableRecord
  2
Continuous
 70
     0
  3
Solid line
 72
    65
 73
     0
 40
0.0
  0
LTYPE
  5
69
330
5
100
AcDbSymbolTableRecord
100
AcDbLinetypeTableRecord
  2
PHANTOM2
 70
     0
  3
___ _ _ ___ _ _ ___ _ _ ___ _ _
 72
    65
 73
     6
 40
1.25
 49
0.625
 74
     0
 49
-0.125
 74
     0
 49
0.125
 74
     0
 49
-0.125
 74
     0
 49
0.125
 74
     0
 49
-0.125
 74
     0
  0
LTYPE
  5
86
330
5
100
AcDbSymbolTableRecord
100
AcDbLinetypeTableRecord
  2
Nascosto 1_5 mm
 70
     0
  3

 72
    65
 73
     2
 40
2.2
 49
1.5
 74
     0
 49
-0.7000000000000001
 74
     0
  0
ENDTAB
  0
TABLE
  2
LAYER
  5
2
330
0
100
AcDbSymbolTable
 70
     4
  0
LAYER
  5
54
330
2
100
AcDbSymbolTableRecord
100
AcDbLayerTableRecord
  2
0
 70
     0
 62
     7
  6
Continuous
370
    -3
390
F
347
21
348
0
  0
LAYER
  5
85
330
2
100
AcDbSymbolTableRecord
100
AcDbLayerTableRecord
  2
P-SANR-FIXT
 70
     0
 62
     6
  6
Continuous
370
    18
390
F
347
21
348
0
  0
LAYER
  5
88
330
2
100
AcDbSymbolTableRecord
100
AcDbLayerTableRecord
  2
M-PIPE
 70
     0
 62
     3
  6
Continuous
370
    18
390
F
347
21
348
0
  0
ENDTAB
  0
TABLE
  2
STYLE
  5
3
330
0
100
AcDbSymbolTable
 70
     2
  0
STYLE
  5
55
330
3
100
AcDbSymbolTableRecord
100
AcDbTextStyleTableRecord
  2
Standard
 70
     0
 40
0.0
 41
1.0
 50
0.0
 71
     0
 42
0.2
  3
txt
  4

  0
STYLE
  5
5A
330
3
100
AcDbSymbolTableRecord
100
AcDbTextStyleTableRecord
  2
Annotative
 70
     0
 40
0.0
 41
1.0
 50
0.0
 71
     0
 42
0.2
  3
txt
  4

1001
AcadAnnotative
1000
AnnotativeData
1002
{
1070
     1
1070
     1
1002
}
  0
ENDTAB
  0
TABLE
  2
VIEW
  5
6
330
0
100
AcDbSymbolTable
 70
     0
  0
ENDTAB
  0
TABLE
  2
UCS
  5
7
330
0
100
AcDbSymbolTable
 70
     0
  0
ENDTAB
  0
TABLE
  2
APPID
  5
9
330
0
100
AcDbSymbolTable
 70
     3
  0
APPID
  5
56
330
9
100
AcDbSymbolTableRecord
100
AcDbRegAppTableRecord
  2
ACAD
 70
     0
  0
APPID
  5
5E
330
9
100
AcDbSymbolTableRecord
100
AcDbRegAppTableRecord
  2
AcadAnnotative
 70
     0
  0
APPID
  5
79
330
9
100
AcDbSymbolTableRecord
100
AcDbRegAppTableRecord
  2
REVIT
 70
     0
  0
ENDTAB
  0
TABLE
  2
DIMSTYLE
  5
A
330
0
100
AcDbSymbolTable
 70
     2
100
AcDbDimStyleTable
 71
     0
  0
DIMSTYLE
105
58
330
A
100
AcDbSymbolTableRecord
100
AcDbDimStyleTableRecord
  2
Standard
 70
     0
340
55
  0
DIMSTYLE
105
59
330
A
100
AcDbSymbolTableRecord
100
AcDbDimStyleTableRecord
  2
Annotative
 70
     0
340
55
1001
AcadAnnotative
1000
AnnotativeData
1002
{
1070
     1
1070
     1
1002
}
  0
ENDTAB
  0
TABLE
  2
BLOCK_RECORD
  5
1
330
0
100
AcDbSymbolTable
 70
     4
  0
BLOCK_RECORD
  5
71
102
{ACAD_XDICTIONARY
360
286
102
}
330
1
100
AcDbSymbolTableRecord
100
AcDbBlockTableRecord
  2
*Model_Space
340
74
 70
     0
280
     1
281
     0
  0
BLOCK_RECORD
  5
6D
330
1
100
AcDbSymbolTableRecord
100
AcDbBlockTableRecord
  2
*Paper_Space
340
70
 70
     0
280
     1
281
     0
  0
BLOCK_RECORD
  5
75
330
1
100
AcDbSymbolTableRecord
100
AcDbBlockTableRecord
  2
*Paper_Space0
340
78
 70
     0
280
     1
281
     0
  0
BLOCK_RECORD
  5
87
330
1
100
AcDbSymbolTableRecord
100
AcDbBlockTableRecord
  2
Automatic flow rate regulator valve_Caleffi_121 DN15 - 1_2__-859151-Est - Idraulica
340
0
102
{BLKREFS
331
14D
102
}
 70
     0
280
     1
281
     0
  0
BLOCK_RECORD
  5
14E
330
1
100
AcDbSymbolTableRecord
100
AcDbBlockTableRecord
  2
Automatic flow rate regulator valve_Caleffi_121 DN15 - 1_2__-V1-Est - Idraulica
340
0
102
{BLKREFS
331
208
102
}
 70
     0
280
     1
281
     0
  0
BLOCK_RECORD
  5
209
330
1
100
AcDbSymbolTableRecord
100
AcDbBlockTableRecord
  2
Automatic flow rate regulator valve_Caleffi_121 DN15 - 1_2__-V2-Est - Idraulica
340
0
102
{BLKREFS
331
27F
102
}
 70
     0
280
     1
281
     0
  0
ENDTAB
  0
ENDSEC
  0
SECTION
  2
BLOCKS
  0
BLOCK
  5
72
330
71
100
AcDbEntity
  8
0
100
AcDbBlockBegin
  2
*Model_Space
 70
     0
 10
0.0
 20
0.0
 30
0.0
  3
*Model_Space
  1

  0
ENDBLK
  5
73
330
71
100
AcDbEntity
  8
0
100
AcDbBlockEnd
  0
BLOCK
  5
6E
330
6D
100
AcDbEntity
 67
     1
  8
0
100
AcDbBlockBegin
  2
*Paper_Space
 70
     0
 10
0.0
 20
0.0
 30
0.0
  3
*Paper_Space
  1

  0
ENDBLK
  5
6F
330
6D
100
AcDbEntity
 67
     1
  8
0
100
AcDbBlockEnd
  0
BLOCK
  5
76
330
75
100
AcDbEntity
 67
     1
  8
0
100
AcDbBlockBegin
  2
*Paper_Space0
 70
     0
 10
0.0
 20
0.0
 30
0.0
  3
*Paper_Space0
  1

  0
ENDBLK
  5
77
330
75
100
AcDbEntity
 67
     1
  8
0
100
AcDbBlockEnd
  0
BLOCK
  5
14B
330
87
100
AcDbEntity
  8
0
100
AcDbBlockBegin
  2
Automatic flow rate regulator valve_Caleffi_121 DN15 - 1_2__-859151-Est - Idraulica
 70
     0
 10
0.0
 20
0.0
 30
0.0
  3
Automatic flow rate regulator valve_Caleffi_121 DN15 - 1_2__-859151-Est - Idraulica
  1

  0
LINE
  5
89
330
87
100
AcDbEntity
  8
M-PIPE
100
AcDbLine
 10
648.1796187945378
 20
1951.471137928805
 30
0.0
 11
649.81792288308
 21
1952.618290801482
 31
0.0
1001
REVIT
1002
{
1070
     3
1000
790271
1002
}
  0
LINE
  5
8A
330
87
100
AcDbEntity
  8
M-PIPE
100
AcDbLine
 10
639.4935470287855
 20
1967.363027598709
 30
0.0
 11
637.8552429402149
 21
1966.215874726012
 31
0.0
1001
REVIT
1002
{
1070
     3
1000
790271
1002
}
  0
LINE
  5
8B
330
87
100
AcDbEntity
  8
M-PIPE
100
AcDbLine
 10
644.5956160940784
 20
1950.487560456936
 30
0.0
 11
644.8572446164679
 21
1950.365561073353
 31
0.0
1001
REVIT
1002
{
1070
     3
1000
790271
1002
}
  0
LINE
  5
8C
330
87
100
AcDbEntity
  8
M-PIPE
100
AcDbLine
 10
635.6800216348668
 20
1963.471993781988
 30
0.0
 11
635.705181330637
 21
1963.184417143415
 31
0.0
1001
REVIT
1002
{
1070
     3
1000
790271
1002
}
  0
LINE
  5
8D
330
87
100
AcDbEntity
  8
M-PIPE
100
AcDbLine
 10
644.5956160940775
 20
1950.487560456935
 30
0.0
 11
635.705181330636
 21
1963.184417143414
 31
0.0
1001
REVIT
1002
{
1070
     3
1000
790271
1002
}
  0
LINE
  5
8E
330
87
100
AcDbEntity
  8
M-PIPE
100
AcDbLine
 10
637.8552429402142
 20
1966.215874726012
 30
0.0
 11
638.4288193765574
 21
1965.396722681734
 31
0.0
1001
REVIT
1002
{
1070
     3
1000
790271
1002
}
  0
LINE
  5
8F
330
87
100
AcDbEntity
  8
M-PIPE
100
AcDbLine
 10
638.4288193765576
 20
1965.396722681734
 30
0.0
 11
636.1529592881372
 21
1963.803148291911
 31
0.0
1001
REVIT
1002
{
1070
     3
1000
790271
1002
}
  0
LINE
  5
90
330
87
100
AcDbEntity
  8
M-PIPE
100
AcDbLine
 10
636.1529592881372
 20
1963.803148291911
 30
0.0
 11
636.3991874992958
 21
1963.451497962941
 31
0.0
1001
REVIT
1002
{
1070
     3
1000
790271
1002
}
  0
LINE
  5
91
330
87
100
AcDbEntity
  8
M-PIPE
100
AcDbLine
 10
636.3991874992958
 20
1963.451497962941
 30
0.0
 11
638.6750475877162
 21
1965.045072352764
 31
0.0
1001
REVIT
1002
{
1070
     3
1000
790271
1002
}
  0
LINE
  5
92
330
87
100
AcDbEntity
  8
M-PIPE
100
AcDbLine
 10
638.6750475877162
 20
1965.045072352764
 30
0.0
 11
642.771202656228
 21
1959.195156656362
 31
0.0
1001
REVIT
1002
{
1070
     3
1000
790271
1002
}
  0
LINE
  5
93
330
87
100
AcDbEntity
  8
M-PIPE
100
AcDbLine
 10
642.771202656228
 20
1959.195156656362
 30
0.0
 11
640.4953425678077
 21
1957.60158226654
 31
0.0
1001
REVIT
1002
{
1070
     3
1000
790271
1002
}
  0
LINE
  5
94
330
87
100
AcDbEntity
  8
M-PIPE
100
AcDbLine
 10
640.4953425678077
 20
1957.60158226654
 30
0.0
 11
640.9877989900821
 21
1956.898281608661
 31
0.0
1001
REVIT
1002
{
1070
     3
1000
790271
1002
}
  0
LINE
  5
95
330
87
100
AcDbEntity
  8
M-PIPE
100
AcDbLine
 10
640.9877989900821
 20
1956.898281608661
 30
0.0
 11
643.2636590785025
 21
1958.491855998484
 31
0.0
1001
REVIT
1002
{
1070
     3
1000
790271
1002
}
  0
LINE
  5
96
330
87
100
AcDbEntity
  8
M-PIPE
100
AcDbLine
 10
643.2636590785025
 20
1958.491855998484
 30
0.0
 11
647.3598141470464
 21
1952.641940302036
 31
0.0
1001
REVIT
1002
{
1070
     3
1000
790271
1002
}
  0
LINE
  5
97
330
87
100
AcDbEntity
  8
M-PIPE
100
AcDbLine
 10
647.3598141470463
 20
1952.641940302036
 30
0.0
 11
645.0839540586261
 21
1951.048365912214
 31
0.0
1001
REVIT
1002
{
1070
     3
1000
790271
1002
}
  0
LINE
  5
98
330
87
100
AcDbEntity
  8
M-PIPE
100
AcDbLine
 10
645.0839540586261
 20
1951.048365912214
 30
0.0
 11
645.3301822697542
 21
1950.696715583288
 31
0.0
1001
REVIT
1002
{
1070
     3
1000
790271
1002
}
  0
LINE
  5
99
330
87
100
AcDbEntity
  8
M-PIPE
100
AcDbLine
 10
645.3301822697543
 20
1950.696715583288
 30
0.0
 11
647.6060423581746
 21
1952.29028997311
 31
0.0
1001
REVIT
1002
{
1070
     3
1000
790271
1002
}
  0
LINE
  5
9A
330
87
100
AcDbEntity
  8
M-PIPE
100
AcDbLine
 10
647.6060423581746
 20
1952.29028997311
 30
0.0
 11
648.1796187945372
 21
1951.471137928805
 31
0.0
1001
REVIT
1002
{
1070
     3
1000
790271
1002
}
  0
SPLINE
  5
9B
330
87
100
AcDbEntity
  8
M-PIPE
100
AcDbSpline
210
0.0
220
0.0
230
1.0
 70
    24
 71
     3
 72
     9
 73
     5
 74
     0
 42
0.000000001
 43
0.0000000001
 40
-1.0
 40
-1.0
 40
-1.0
 40
-1.0
 40
-0.5
 40
0.0
 40
0.0
 40
0.0
 40
0.0
 10
644.8572446164672
 20
1950.365561073353
 30
0.0
 10
644.8622633909496
 20
1950.369075257078
 30
0.0
 10
644.9461051076467
 20
1950.427781859126
 30
0.0
 10
645.1775551598077
 20
1950.589844930368
 30
0.0
 10
645.3301822697542
 20
1950.696715583288
 30
0.0
1001
REVIT
1002
{
1070
     3
1000
790271
1002
}
  0
SPLINE
  5
9C
330
87
100
AcDbEntity
  8
M-PIPE
100
AcDbSpline
210
0.0
220
0.0
230
1.0
 70
     8
 71
     3
 72
     9
 73
     5
 74
     0
 42
0.000000001
 43
0.0000000001
 40
-1.0
 40
-1.0
 40
-1.0
 40
-1.0
 40
-0.5
 40
0.0
 40
0.0
 40
0.0
 40
0.0
 10
645.0839540586262
 20
1951.048365912214
 30
0.0
 10
644.0950031838483
 20
1951.789712256168
 30
0.0
 10
642.4233597976466
 20
1953.50604454953
 30
0.0
 10
641.3642331381524
 20
1955.6896560538
 30
0.0
 10
640.9877989900821
 20
1956.898281608661
 30
0.0
1001
REVIT
1002
{
1070
     3
1000
790271
1002
}
  0
SPLINE
  5
9D
330
87
100
AcDbEntity
  8
M-PIPE
100
AcDbSpline
210
0.0
220
0.0
230
1.0
 70
     8
 71
     3
 72
     9
 73
     5
 74
     0
 42
0.000000001
 43
0.0000000001
 40
-1.0
 40
-1.0
 40
-1.0
 40
-1.0
 40
-0.5
 40
0.0
 40
0.0
 40
0.0
 40
0.0
 10
640.4953425678077
 20
1957.60158226654
 30
0.0
 10
639.5063916930406
 20
1958.34292861049
 30
0.0
 10
637.834748306855
 20
1960.05926090384
 30
0.0
 10
636.7756216473662
 20
1962.242872408091
 30
0.0
 10
636.3991874992958
 20
1963.451497962941
 30
0.0
1001
REVIT
1002
{
1070
     3
1000
790271
1002
}
  0
SPLINE
  5
9E
330
87
100
AcDbEntity
  8
M-PIPE
100
AcDbSpline
210
0.0
220
0.0
230
1.0
 70
    24
 71
     3
 72
     9
 73
     5
 74
     0
 42
0.000000001
 43
0.0000000001
 40
-1.0
 40
-1.0
 40
-1.0
 40
-1.0
 40
-0.5
 40
0.0
 40
0.0
 40
0.0
 40
0.0
 10
636.1529592881372
 20
1963.803148291911
 30
0.0
 10
636.0003321781956
 20
1963.696277638995
 30
0.0
 10
635.7688821260422
 20
1963.534214567758
 30
0.0
 10
635.6850404093481
 20
1963.475507965713
 30
0.0
 10
635.6800216348659
 20
1963.471993781988
 30
0.0
1001
REVIT
1002
{
1070
     3
1000
790271
1002
}
  0
LINE
  5
9F
330
87
100
AcDbEntity
  8
P-SANR-FIXT
100
AcDbLine
 10
669.1664074431895
 20
2024.499999999996
 30
0.0
 11
669.1664074431895
 21
2026.499999999991
 31
0.0
  0
LINE
  5
A0
330
87
100
AcDbEntity
  8
P-SANR-FIXT
100
AcDbLine
 10
651.1664074431894
 20
2026.499999999991
 30
0.0
 11
651.1664074431894
 21
2024.499999999996
 31
0.0
  0
LINE
  5
A1
330
87
100
AcDbEntity
  8
P-SANR-FIXT
100
AcDbLine
 10
669.1664074431887
 20
2026.499999999991
 30
0.0
 11
651.1664074431886
 21
2026.499999999991
 31
0.0
  0
LINE
  5
A2
330
87
100
AcDbEntity
  8
P-SANR-FIXT
100
AcDbLine
 10
651.5061534053444
 20
2029.999999999995
 30
0.0
 11
655.8362804242665
 21
2029.999999999995
 31
0.0
  0
LINE
  5
A3
330
87
100
AcDbEntity
  8
P-SANR-FIXT
100
AcDbLine
 10
655.8362804242665
 20
2029.999999999995
 30
0.0
 11
664.4965344621109
 21
2029.999999999995
 31
0.0
  0
LINE
  5
A4
330
87
100
AcDbEntity
  8
P-SANR-FIXT
100
AcDbLine
 10
664.4965344621109
 20
2029.999999999995
 30
0.0
 11
668.8266614810331
 21
2029.999999999995
 31
0.0
  0
LINE
  5
A5
330
87
100
AcDbEntity
  8
P-SANR-FIXT
100
AcDbLine
 10
668.8266614810331
 20
2026.499999999991
 30
0.0
 11
668.8266614810331
 21
2029.999999999995
 31
0.0
  0
LINE
  5
A6
330
87
100
AcDbEntity
  8
P-SANR-FIXT
100
AcDbLine
 10
664.4965344621109
 20
2029.999999999995
 30
0.0
 11
664.4965344621109
 21
2026.499999999991
 31
0.0
  0
LINE
  5
A7
330
87
100
AcDbEntity
  8
P-SANR-FIXT
100
AcDbLine
 10
655.8362804242665
 20
2029.999999999995
 30
0.0
 11
655.8362804242665
 21
2026.499999999991
 31
0.0
  0
LINE
  5
A8
330
87
100
AcDbEntity
  8
P-SANR-FIXT
100
AcDbLine
 10
651.5061534053443
 20
2029.999999999995
 30
0.0
 11
651.5061534053443
 21
2026.499999999991
 31
0.0
  0
LWPOLYLINE
  5
A9
330
87
100
AcDbEntity
  8
P-SANR-FIXT
100
AcDbPolyline
 90
       46
 70
   128
 43
0.0
 10
712.430962500377
 20
1994.827836145547
 10
712.2182610695496
 20
1995.131605270014
 10
711.9964143833557
 20
1995.448435172704
 10
711.7657773491682
 20
1995.77781899336
 10
711.5267189370422
 20
1996.119229788132
 10
711.2796215894404
 20
1996.472121372582
 10
711.0248806094078
 20
1996.83592919545
 10
710.7629035281705
 20
1997.210071241832
 10
710.4941094531729
 20
1997.593948964263
 10
710.2189283975957
 20
1997.986948240279
 10
709.9378005924255
 20
1998.388440354873
 10
709.6511757821797
 20
1998.797783006308
 10
709.3595125054114
 20
1999.214321333665
 10
709.0632773611452
 20
1999.637388964475
 10
708.7629442624187
 20
2000.066309080781
 10
708.4589936781219
 20
2000.500395501892
 10
708.1519118643505
 20
2000.938953782136
 10
707.8421900864995
 20
2001.381282321819
 10
707.5303238333426
 20
2001.826673489635
 10
707.2168120243571
 20
2002.274414754728
 10
706.9021562115583
 20
2002.723789826586
 10
706.5868597771236
 20
2003.174079800957
 10
706.271427128089
 20
2003.624564309937
 10
705.9563628894038
 20
2004.074522674411
 10
705.6421710966398
 20
2004.523235056982
 10
705.3293543896412
 20
2004.969983613557
 10
705.0184132084092
 20
2005.414053641748
 10
704.7098449925027
 20
2005.854734724239
 10
704.4041433852428
 20
2006.291321865305
 10
704.1017974439882
 20
2006.723116618655
 10
703.8032908577481
 20
2007.149428204793
 10
703.5091011733824
 20
2007.569574616124
 10
703.2196990316286
 20
2007.982883708016
 10
702.9355474141785
 20
2008.38869427409
 10
702.6571009030034
 20
2008.786357104009
 10
702.384804953123
 20
2009.175236022075
 10
702.11909517997
 20
2009.554708904975
 10
701.8603966625
 20
2009.924168677047
 10
701.6091232631547
 20
2010.283024281469
 10
701.3656769657709
 20
2010.630701625827
 10
701.1304472324922
 20
2010.966644500535
 10
700.9038103807121
 20
2011.290315468659
 10
700.6861289810467
 20
2011.601196725696
 10
700.4777512772992
 20
2011.898790927952
 10
700.2790106293445
 20
2012.182621988188
 10
700.123871324441
 20
2012.404183877253
  0
LWPOLYLINE
  5
AA
330
87
100
AcDbEntity
  8
P-SANR-FIXT
100
AcDbPolyline
 90
        3
 70
   128
 43
0.0
 10
698.6299932351094
 20
2014.537662892848
 10
698.6168767810819
 20
2014.556395130523
 10
698.6150383000022
 20
2014.559020753612
  0
LWPOLYLINE
  5
AB
330
87
100
AcDbEntity
  8
P-SANR-FIXT
100
AcDbPolyline
 90
        3
 70
   128
 43
0.0
 10
713.7742200521696
 20
1987.944693002719
 10
713.6780941762097
 20
1987.872874508769
 10
713.6516634758423
 20
1987.854154093745
  0
LINE
  5
AC
330
87
100
AcDbEntity
  8
P-SANR-FIXT
100
AcDbLine
 10
714.3734353645485
 20
1992.053697396429
 30
0.0
 11
714.3865518185763
 21
1992.034965158754
 31
0.0
  0
LINE
  5
AD
330
87
100
AcDbEntity
  8
P-SANR-FIXT
100
AcDbLine
 10
691.4767304884743
 20
2013.223047580204
 30
0.0
 11
689.0159635212786
 21
2011.499999999996
 31
0.0
  0
LINE
  5
AE
330
87
100
AcDbEntity
  8
P-SANR-FIXT
100
AcDbLine
 10
696.4410267189176
 20
1975.803136499157
 30
0.0
 11
713.6516634758423
 21
1987.854154093745
 31
0.0
  0
LINE
  5
AF
330
87
100
AcDbEntity
  8
P-SANR-FIXT
100
AcDbLine
 10
696.0112694050263
 20
1973.365861658037
 30
0.0
 11
696.4410267189176
 21
1975.803136499157
 31
0.0
  0
LINE
  5
B0
330
87
100
AcDbEntity
  8
P-SANR-FIXT
100
AcDbLine
 10
690.6867811171479
 20
1969.637614821755
 30
0.0
 11
696.0112694050263
 21
1973.365861658037
 31
0.0
  0
LINE
  5
B1
330
87
100
AcDbEntity
  8
P-SANR-FIXT
100
AcDbLine
 10
689.6422347566678
 20
1969.821796527709
 30
0.0
 11
690.6867811171479
 21
1969.637614821755
 31
0.0
  0
LINE
  5
B2
330
87
100
AcDbEntity
  8
P-SANR-FIXT
100
AcDbLine
 10
673.5984977572782
 20
1958.587850939682
 30
0.0
 11
689.6422347566678
 21
1969.821796527709
 31
0.0
  0
LINE
  5
B3
330
87
100
AcDbEntity
  8
P-SANR-FIXT
100
AcDbLine
 10
652.4893096527978
 20
1987.502092803218
 30
0.0
 11
652.0701327849959
 21
1987.5760049947
 31
0.0
  0
LINE
  5
B4
330
87
100
AcDbEntity
  8
P-SANR-FIXT
100
AcDbLine
 10
673.0241517912365
 20
1957.017277927515
 30
0.0
 11
673.187266440617
 21
1957.94234707306
 31
0.0
  0
LWPOLYLINE
  5
B5
330
87
100
AcDbEntity
  8
P-SANR-FIXT
100
AcDbPolyline
 90
       21
 70
   128
 43
0.0
 10
673.0241517912365
 20
1957.017277927515
 10
673.0164199750671
 20
1956.978035021191
 10
673.0071250458303
 20
1956.939132695187
 10
672.9962818734307
 20
1956.900633184926
 10
672.9839078046302
 20
1956.862598081411
 10
672.9700226352996
 20
1956.825088232695
 10
672.9546485787481
 20
1956.788163646534
 10
672.9378102301863
 20
1956.751883394388
 10
672.9195345273798
 20
1956.716305516922
 10
672.8998507075548
 20
1956.681486931151
 10
672.8787902606236
 20
1956.647483339383
 10
672.8563868788089
 20
1956.614349140112
 10
672.8326764027425
 20
1956.582137340989
 10
672.8076967641282
 20
1956.55089947402
 10
672.781487925059
 20
1956.52068551313
 10
672.7540918140861
 20
1956.49154379421
 10
672.7255522591434
 20
1956.463520937794
 10
672.6959149174305
 20
1956.436661774474
 10
672.6652272023719
 20
1956.411009273183
 10
672.6335382077654
 20
1956.386604472449
 10
672.6129204745754
 20
1956.371774060893
  0
LWPOLYLINE
  5
B6
330
87
100
AcDbEntity
  8
P-SANR-FIXT
100
AcDbPolyline
 90
        4
 70
   128
 43
0.0
 10
650.8170158932355
 20
1987.499551743875
 10
650.8502320380552
 20
1987.521833449406
 10
650.8843126440705
 20
1987.542769040434
 10
650.9192031895821
 20
1987.562325024478
  0
LINE
  5
B7
330
87
100
AcDbEntity
  8
P-SANR-FIXT
100
AcDbLine
 10
650.8170158932355
 20
1987.499551743875
 30
0.0
 11
643.5876071968082
 21
1982.437465277838
 31
0.0
  0
LINE
  5
B8
330
87
100
AcDbEntity
  8
P-SANR-FIXT
100
AcDbLine
 10
665.3835117781481
 20
1951.309687594856
 30
0.0
 11
672.6129204745754
 21
1956.371774060893
 31
0.0
  0
LINE
  5
B9
330
87
100
AcDbEntity
  8
P-SANR-FIXT
100
AcDbLine
 10
643.5876071968082
 20
1982.437465277838
 30
0.0
 11
643.3420315888667
 21
1981.044736797177
 31
0.0
  0
LINE
  5
BA
330
87
100
AcDbEntity
  8
P-SANR-FIXT
100
AcDbLine
 10
663.9907832974881
 20
1951.555263202797
 30
0.0
 11
665.3835117781481
 21
1951.309687594856
 31
0.0
  0
LWPOLYLINE
  5
BB
330
87
100
AcDbEntity
  8
P-SANR-FIXT
100
AcDbPolyline
 90
       21
 70
   128
 43
0.0
 10
673.5984977572781
 20
1958.587850939682
 10
673.5661992124001
 20
1958.564258765623
 10
673.5348699382458
 20
1958.539393865482
 10
673.5045600549705
 20
1958.513296017796
 10
673.4753180519216
 20
1958.486006973552
 10
673.447190710066
 20
1958.457570389401
 10
673.4202230271505
 20
1958.428031757811
 10
673.3944581457151
 20
1958.397438334291
 10
673.3699372840735
 20
1958.365839061793
 10
673.346699670374
 20
1958.333284492412
 10
673.3247824798414
 20
1958.299826706514
 10
673.3042207753046
 20
1958.26551922942
 10
673.2850474511049
 20
1958.230416945773
 10
673.2672931804714
 20
1958.194576011741
 10
673.250986366449
 20
1958.158053765171
 10
673.2361530964618
 20
1958.120908633868
 10
673.2228171005775
 20
1958.083200042117
 10
673.210999713545
 20
1958.044988315622
 10
673.200719840662
 20
1958.006334584993
 10
673.1919939275327
 20
1957.967300687953
 10
673.187266440617
 20
1957.94234707306
  0
LWPOLYLINE
  5
BC
330
87
100
AcDbEntity
  8
P-SANR-FIXT
100
AcDbPolyline
 90
       21
 70
   128
 43
0.0
 10
652.4893096527978
 20
1987.502092803218
 10
652.5288303591634
 20
1987.495936469372
 10
652.5685656408706
 20
1987.491365466671
 10
652.6084519299453
 20
1987.488387107743
 10
652.6484254168333
 20
1987.487006157329
 10
652.6884221524832
 20
1987.487224824653
 10
652.72837815065
 20
1987.489042759895
 10
652.7682294902599
 20
1987.492457054745
 10
652.8079124176711
 20
1987.497462247063
 10
652.8473634486646
 20
1987.504050329605
 10
652.8865194700069
 20
1987.512210762847
 10
652.9253178404164
 20
1987.521930491835
 10
652.9636964907772
 20
1987.533193967077
 10
653.0015940234356
 20
1987.545983169415
 10
653.0389498104239
 20
1987.560277638854
 10
653.0757040904517
 20
1987.576054507291
 10
653.1117980645111
 20
1987.593288535103
 10
653.1471739899437
 20
1987.611952151523
 10
653.1817752728149
 20
1987.632015498743
 10
653.2155465584537
 20
1987.653446479691
 10
653.2365342668158
 20
1987.667748511941
  0
LWPOLYLINE
  5
BD
330
87
100
AcDbEntity
  8
P-SANR-FIXT
100
AcDbPolyline
 90
       80
 70
   128
 43
0.0
 10
641.1713636741803
 20
1978.914431466002
 10
641.1793926736704
 20
1978.902964866384
 10
641.2034668274539
 20
1978.868583411644
 10
641.2435476220206
 20
1978.811342104775
 10
641.2995709366493
 20
1978.731332519657
 10
641.3714471459873
 20
1978.628682654559
 10
641.4590612634326
 20
1978.503556727366
 10
641.5622731250872
 20
1978.356154912872
 10
641.6809176139901
 20
1978.186713022535
 10
641.8148049242684
 20
1977.995502127233
 10
641.9637208647866
 20
1977.78282812361
 10
642.1274272018069
 20
1977.549031244703
 10
642.3056620401125
 20
1977.294485515645
 10
642.4981402419835
 20
1977.019598155301
 10
642.7045538833563
 20
1976.72480892481
 10
642.9245727464376
 20
1976.410589424055
 10
643.1578448479814
 20
1976.077442337207
 10
643.4039970023872
 20
1975.725900628537
 10
643.6626354187175
 20
1975.356526689788
 10
643.9333463306796
 20
1974.969911440466
 10
644.2156966585627
 20
1974.566673382497
 10
644.5092347020739
 20
1974.147457610753
 10
644.8134908629618
 20
1973.712934781042
 10
645.127978396273
 20
1973.263800037199
 10
645.4521941890418
 20
1972.800771899002
 10
645.7856195651621
 20
1972.324591112698
 10
646.1277211151589
 20
1971.836019465967
 10
646.4779515495299
 20
1971.335838569219
 10
646.8357505742922
 20
1970.824848605191
 10
647.2005457873322
 20
1970.303867048819
 10
647.5717535941283
 20
1969.773727359456
 10
647.948780141376
 20
1969.235277647515
 10
648.331022267028
 20
1968.689379317672
 10
648.7178684652239
 20
1968.136905690803
 10
649.108699864569
 20
1967.578740606856
 10
649.502891218198
 20
1967.015777010896
 10
649.8998119040341
 20
1966.448915524584
 10
650.2988269336522
 20
1965.879063005376
 10
650.6992979681233
 20
1965.307131095737
 10
651.1005843392218
 20
1964.734034764721
 10
651.5020440743568
 20
1964.1606908442
 10
651.9030349235926
 20
1963.588016562142
 10
652.3029153871105
 20
1963.016928075234
 10
652.701045741472
 20
1962.448339003229
 10
653.0967890630401
 20
1961.88315896735
 10
653.4895122469214
 20
1961.322292135089
 10
653.8785870197976
 20
1960.766635773732
 10
654.2633909450306
 20
1960.217078814924
 10
654.6433084184273
 20
1959.674500432566
 10
655.0177316530745
 20
1959.139768636326
 10
655.3860616516701
 20
1958.613738883009
 10
655.7477091647886
 20
1958.097252708006
 10
656.1020956335566
 20
1957.591136379018
 10
656.448654115223
 20
1957.096199574207
 10
656.7868301901448
 20
1956.61323408688
 10
657.116082848743
 20
1956.143012558788
 10
657.4358853570006
 20
1955.686287244068
 10
657.7457260991255
 20
1955.243788805796
 10
658.0451093960256
 20
1954.816225147076
 10
658.3335562982912
 20
1954.404280278554
 10
658.6106053524109
 20
1954.008613224144
 10
658.8758133389984
 20
1953.629856966727
 10
659.1287559818502
 20
1953.268617435517
 10
659.3690286266958
 20
1952.925472536707
 10
659.5962468885588
 20
1952.600971228932
 10
659.8100472666907
 20
1952.295632645062
 10
660.0100877260952
 20
1952.009945261696
 10
660.1960482447101
 20
1951.744366117703
 10
660.3676313253751
 20
1951.49932008306
 10
660.5245624717635
 20
1951.27519917915
 10
660.6665906275182
 20
1951.072361951608
 10
660.7934885778872
 20
1950.891132896728
 10
660.9050533132205
 20
1950.73180194234
 10
661.0011063537406
 20
1950.594623983979
 10
661.081494035073
 20
1950.479818477118
 10
661.1460877540756
 20
1950.387569086076
 10
661.1947841745778
 20
1950.318023390201
 10
661.2275053926946
 20
1950.271292647769
 10
661.2441990614571
 20
1950.247451618001
 10
661.2465389464676
 20
1950.244109915887
  0
LWPOLYLINE
  5
BE
330
87
100
AcDbEntity
  8
P-SANR-FIXT
100
AcDbPolyline
 90
       41
 70
   128
 43
0.0
 10
641.1713636741803
 20
1978.914431466002
 10
641.1490819686496
 20
1978.947647610821
 10
641.128146377622
 20
1978.981728216836
 10
641.1085903935775
 20
1979.016618762348
 10
641.0904453019187
 20
1979.052263429926
 10
641.0737401309217
 20
1979.088605195705
 10
641.0585016052965
 20
1979.125585920615
 10
641.0447541034333
 20
1979.163146443382
 10
641.0325196184023
 20
1979.201226675184
 10
641.0218177227697
 20
1979.239765695772
 10
641.0126655372859
 20
1979.278701850936
 10
641.0050777034951
 20
1979.317972851132
 10
640.9990663603126
 20
1979.357515871138
 10
640.9946411246053
 20
1979.397267650557
 10
640.9918090758062
 20
1979.437164595022
 10
640.9905747445893
 20
1979.477142877933
 10
640.9909401056212
 20
1979.517138542565
 10
640.9929045744023
 20
1979.557087604387
 10
640.9964650082017
 20
1979.596926153422
 10
641.0016157110844
 20
1979.63659045649
 10
641.0083484430251
 20
1979.676017059167
 10
641.0166524330884
 20
1979.715142887299
 10
641.026514396662
 20
1979.753905347909
 10
641.037918556708
 20
1979.792242429327
 10
641.0508466690028
 20
1979.830092800403
 10
641.0652780513247
 20
1979.867395908615
 10
641.0811896165404
 20
1979.90409207695
 10
641.0985559095401
 20
1979.940122599365
 10
641.1173491479594
 20
1979.975429834711
 10
641.137539266626
 20
1980.009957298942
 10
641.1590939656569
 20
1980.043649755483
 10
641.1819787621319
 20
1980.076453303589
 10
641.2061570452582
 20
1980.108315464581
 10
641.2315901349407
 20
1980.139185265799
 10
641.2582373436615
 20
1980.169013322146
 10
641.2860560415707
 20
1980.197751915095
 10
641.3150017246866
 20
1980.225355069027
 10
641.3450280860903
 20
1980.251778624785
 10
641.3760870900094
 20
1980.276980310316
 10
641.4081290486627
 20
1980.3009198083
 10
641.4169392821183
 20
1980.307159946641
  0
LWPOLYLINE
  5
BF
330
87
100
AcDbEntity
  8
P-SANR-FIXT
100
AcDbPolyline
 90
       41
 70
   128
 43
0.0
 10
662.6392674271077
 20
1949.998534307949
 10
662.606051282288
 20
1949.976252602418
 10
662.5719706762728
 20
1949.95531701139
 10
662.5370801307613
 20
1949.935761027346
 10
662.5014354631832
 20
1949.917615935687
 10
662.4650936974034
 20
1949.90091076469
 10
662.4281129724941
 20
1949.885672239065
 10
662.3905524497267
 20
1949.871924737201
 10
662.3524722179251
 20
1949.859690252171
 10
662.3139331973366
 20
1949.848988356538
 10
662.274997042173
 20
1949.839836171054
 10
662.2357260419768
 20
1949.832248337263
 10
662.1961830219711
 20
1949.826236994081
 10
662.156431242552
 20
1949.821811758374
 10
662.1165342980871
 20
1949.818979709574
 10
662.0765560151762
 20
1949.817745378357
 10
662.0365603505441
 20
1949.818110739389
 10
661.9966112887222
 20
1949.820075208171
 10
661.9567727396875
 20
1949.82363564197
 10
661.9171084366195
 20
1949.828786344853
 10
661.8776818339425
 20
1949.835519076793
 10
661.8385560058096
 20
1949.843823066857
 10
661.7997935451999
 20
1949.85368503043
 10
661.7614564637814
 20
1949.865089190476
 10
661.7236060927062
 20
1949.878017302771
 10
661.6863029844936
 20
1949.892448685092
 10
661.6496068161589
 20
1949.908360250309
 10
661.6135762937442
 20
1949.925726543309
 10
661.5782690583984
 20
1949.944519781728
 10
661.5437415941666
 20
1949.964709900394
 10
661.5100491376263
 20
1949.986264599425
 10
661.4772455895202
 20
1950.0091493959
 10
661.4453834285278
 20
1950.033327679026
 10
661.4145136273099
 20
1950.058760768709
 10
661.3846855709628
 20
1950.08540797743
 10
661.3559469780141
 20
1950.113226675339
 10
661.3283438240817
 20
1950.142172358455
 10
661.3019202683237
 20
1950.172198719858
 10
661.2767185827927
 20
1950.203257723778
 10
661.2527790848091
 20
1950.235299682431
 10
661.2465389464676
 20
1950.244109915887
  0
LWPOLYLINE
  5
C0
330
87
100
AcDbEntity
  8
P-SANR-FIXT
100
AcDbPolyline
 90
        3
 70
   128
 43
0.0
 10
661.2465389464676
 20
1950.244109915887
 10
661.2385099469777
 20
1950.255576515505
 10
661.214435793194
 20
1950.289957970245
  0
LWPOLYLINE
  5
C1
330
87
100
AcDbEntity
  8
P-SANR-FIXT
100
AcDbPolyline
 90
        4
 70
   128
 43
0.0
 10
641.206534929621
 20
1978.864201707649
 10
641.1903972279536
 20
1978.887248734119
 10
641.173703559191
 20
1978.911089763888
 10
641.1713636741803
 20
1978.914431466002
  0
LINE
  5
C2
330
87
100
AcDbEntity
  8
P-SANR-FIXT
100
AcDbLine
 10
662.6392674271077
 20
1949.998534307949
 30
0.0
 11
664.2775715156719
 21
1951.145687180641
 31
0.0
  0
LINE
  5
C3
330
87
100
AcDbEntity
  8
P-SANR-FIXT
100
AcDbLine
 10
643.0552433706824
 20
1981.454312819334
 30
0.0
 11
641.4169392821183
 21
1980.307159946641
 31
0.0
  0
LINE
  5
C4
330
87
100
AcDbEntity
  8
P-SANR-FIXT
100
AcDbLine
 10
678.6248885181331
 20
2001.247218758448
 30
0.0
 11
696.441026718917
 21
1975.803136499157
 31
0.0
  0
LINE
  5
C5
330
87
100
AcDbEntity
  8
P-SANR-FIXT
100
AcDbLine
 10
677.2706039790879
 20
2000.13030563111
 30
0.0
 11
696.0112694050256
 21
1973.365861658036
 31
0.0
  0
LINE
  5
C6
330
87
100
AcDbEntity
  8
P-SANR-FIXT
100
AcDbLine
 10
671.972076134282
 20
1996.3649834398
 30
0.0
 11
690.6867811171471
 21
1969.637614821754
 31
0.0
  0
LINE
  5
C7
330
87
100
AcDbEntity
  8
P-SANR-FIXT
100
AcDbLine
 10
671.7580481527508
 20
1995.363061978295
 30
0.0
 11
689.642234756667
 21
1969.821796527708
 31
0.0
  0
LINE
  5
C8
330
87
100
AcDbEntity
  8
P-SANR-FIXT
100
AcDbLine
 10
643.5876071968074
 20
1982.437465277837
 30
0.0
 11
665.3835117781473
 21
1951.309687594855
 31
0.0
  0
LINE
  5
C9
330
87
100
AcDbEntity
  8
P-SANR-FIXT
100
AcDbLine
 10
650.1047111012504
 20
1952.20871477934
 30
0.0
 11
644.6557349559459
 21
1959.990659200107
 31
0.0
  0
LINE
  5
CA
330
87
100
AcDbEntity
  8
P-SANR-FIXT
100
AcDbLine
 10
644.6557349559459
 20
1959.990659200107
 30
0.0
 11
639.2067588106414
 21
1967.772603620873
 31
0.0
  0
LINE
  5
CB
330
87
100
AcDbEntity
  8
P-SANR-FIXT
100
AcDbLine
 10
656.6579274556371
 20
1956.797326270162
 30
0.0
 11
650.1047111012504
 21
1952.20871477934
 31
0.0
  0
LINE
  5
CC
330
87
100
AcDbEntity
  8
P-SANR-FIXT
100
AcDbLine
 10
651.2089513103326
 20
1964.579270690929
 30
0.0
 11
644.6557349559459
 21
1959.990659200107
 31
0.0
  0
LINE
  5
CD
330
87
100
AcDbEntity
  8
P-SANR-FIXT
100
AcDbLine
 10
645.7599751650282
 20
1972.361215111696
 30
0.0
 11
639.2067588106414
 21
1967.772603620873
 31
0.0
  0
LINE
  5
CE
330
87
100
AcDbEntity
  8
P-SANR-FIXT
100
AcDbLine
 10
643.0552433706817
 20
1981.454312819333
 30
0.0
 11
664.2775715156711
 21
1951.14568718064
 31
0.0
  0
LINE
  5
CF
330
87
100
AcDbEntity
  8
P-SANR-FIXT
100
AcDbLine
 10
672.6664074431895
 20
2012.499999999995
 30
0.0
 11
672.6664074431895
 21
2023.999999999996
 31
0.0
  0
LINE
  5
D0
330
87
100
AcDbEntity
  8
P-SANR-FIXT
100
AcDbLine
 10
647.6664074431894
 20
2023.999999999996
 30
0.0
 11
647.6664074431894
 21
2012.499999999995
 31
0.0
  0
LINE
  5
D1
330
87
100
AcDbEntity
  8
P-SANR-FIXT
100
AcDbLine
 10
632.1664074431891
 20
1986.499999999996
 30
0.0
 11
633.0324328469735
 21
1984.999999999996
 31
0.0
  0
LINE
  5
D2
330
87
100
AcDbEntity
  8
P-SANR-FIXT
100
AcDbLine
 10
633.0324328469738
 20
2014.999999999996
 30
0.0
 11
632.1664074431891
 21
2013.499999999995
 31
0.0
  0
LINE
  5
D3
330
87
100
AcDbEntity
  8
P-SANR-FIXT
100
AcDbLine
 10
643.8003820394045
 20
1984.999999999996
 30
0.0
 11
645.2437577123788
 21
1987.499999999996
 31
0.0
  0
LINE
  5
D4
330
87
100
AcDbEntity
  8
P-SANR-FIXT
100
AcDbLine
 10
645.2437577123788
 20
2012.499999999995
 30
0.0
 11
643.8003820394044
 21
2014.999999999996
 31
0.0
  0
LINE
  5
D5
330
87
100
AcDbEntity
  8
P-SANR-FIXT
100
AcDbLine
 10
645.2437577123788
 20
1987.499999999996
 30
0.0
 11
650.9037664327943
 21
1987.499999999996
 31
0.0
  0
LINE
  5
D6
330
87
100
AcDbEntity
  8
P-SANR-FIXT
100
AcDbLine
 10
652.3401450894859
 20
1987.499999999996
 30
0.0
 11
652.9872421601581
 21
1987.499999999996
 31
0.0
  0
LINE
  5
D7
330
87
100
AcDbEntity
  8
P-SANR-FIXT
100
AcDbLine
 10
647.6664074431894
 20
2012.499999999995
 30
0.0
 11
645.2437577123788
 21
2012.499999999995
 31
0.0
  0
LINE
  5
D8
330
87
100
AcDbEntity
  8
P-SANR-FIXT
100
AcDbLine
 10
675.6346330003665
 20
2012.499999999995
 30
0.0
 11
672.6664074431891
 21
2012.499999999995
 31
0.0
  0
LWPOLYLINE
  5
D9
330
87
100
AcDbEntity
  8
P-SANR-FIXT
100
AcDbPolyline
 90
       34
 70
   128
 43
0.0
 10
678.6346330003667
 20
2000.721954629075
 10
678.6346330003667
 20
2001.035374146274
 10
678.6346330003667
 20
2001.412181652574
 10
678.6346330003667
 20
2001.786729969478
 10
678.6346330003667
 20
2002.15841989958
 10
678.6346330003667
 20
2002.526656818281
 10
678.6346330003667
 20
2002.890851625064
 10
678.6346330003667
 20
2003.250421685929
 10
678.6346330003667
 20
2003.604791765483
 10
678.6346330003667
 20
2003.953394947194
 10
678.6346330003667
 20
2004.295673540334
 10
678.6346330003667
 20
2004.631079972172
 10
678.6346330003667
 20
2004.959077663965
 10
678.6346330003667
 20
2005.279141889376
 10
678.6346330003667
 20
2005.590760613921
 10
678.6346330003667
 20
2005.893435314116
 10
678.6346330003667
 20
2006.186681775007
 10
678.6346330003667
 20
2006.470030864814
 10
678.6346330003667
 20
2006.743029285436
 10
678.6346330003667
 20
2007.005240297637
 10
678.6346330003667
 20
2007.256244419734
 10
678.6346330003667
 20
2007.495640098676
 10
678.6346330003667
 20
2007.723044352444
 10
678.6346330003667
 20
2007.938093382744
 10
678.6346330003667
 20
2008.140443157
 10
678.6346330003667
 20
2008.329769958741
 10
678.6346330003667
 20
2008.50577090547
 10
678.6346330003667
 20
2008.668164433219
 10
678.6346330003667
 20
2008.816690746984
 10
678.6346330003667
 20
2008.951112236347
 10
678.6346330003667
 20
2009.071213855602
 10
678.6346330003667
 20
2009.176803467776
 10
678.6346330003667
 20
2009.267712152015
 10
678.6346330003667
 20
2009.287087810498
  0
LWPOLYLINE
  5
DA
330
87
100
AcDbEntity
  8
P-SANR-FIXT
100
AcDbPolyline
 90
       25
 70
   128
 43
0.0
 10
675.6346330003665
 20
2012.499999999995
 10
675.7546010029265
 20
2012.497600319978
 10
675.8743770822741
 20
2012.490405118903
 10
675.9937696222332
 20
2012.478425907557
 10
676.1125876202092
 20
2012.461681850122
 10
676.2306409927518
 20
2012.440199733519
 10
676.347740879648
 20
2012.414013924551
 10
676.4636999460589
 20
2012.383166314927
 10
676.5783326822149
 20
2012.347706254243
 10
676.6914557001918
 20
2012.307690471029
 10
676.8028880272924
 20
2012.263182982004
 10
676.9124513955645
 20
2012.214254989655
 10
677.019970526991
 20
2012.160984768334
 10
677.1252734138977
 20
2012.103457539028
 10
677.2281915941293
 20
2012.041765333036
 10
677.3285604205516
 20
2011.976006844724
 10
677.4262193244537
 20
2011.906287273648
 10
677.5210120724219
 20
2011.832718156248
 10
677.6127870162809
 20
2011.755417187418
 10
677.7013973356982
 20
2011.674508032218
 10
677.7867012730652
 20
2011.590120128037
 10
677.8685623602791
 20
2011.502388477519
 10
677.9468496370635
 20
2011.411453432591
 10
678.0214378604756
 20
2011.317460469925
 10
678.059671580079
 20
2011.266122274048
  0
LWPOLYLINE
  5
DB
330
87
100
AcDbEntity
  8
P-SANR-FIXT
100
AcDbPolyline
 90
        3
 70
   128
 43
0.0
 10
678.6346330003667
 20
1990.511626603304
 10
678.6346330003667
 20
1990.500426822042
 10
678.6346330003667
 20
1990.499999999996
  0
LINE
  5
DC
330
87
100
AcDbEntity
  8
P-SANR-FIXT
100
AcDbLine
 10
712.6664074431894
 20
2010.999999999995
 30
0.0
 11
708.9164074431896
 21
2010.999999999995
 31
0.0
  0
LINE
  5
DD
330
87
100
AcDbEntity
  8
P-SANR-FIXT
100
AcDbLine
 10
713.7100688683525
 20
1987.956338574833
 30
0.0
 11
713.8735142243761
 21
1987.792893218809
 31
0.0
  0
LINE
  5
DE
330
87
100
AcDbEntity
  8
P-SANR-FIXT
100
AcDbLine
 10
713.8735142243761
 20
2012.207106781182
 30
0.0
 11
712.6664074431894
 21
2010.999999999995
 31
0.0
  0
LWPOLYLINE
  5
DF
330
87
100
AcDbEntity
  8
P-SANR-FIXT
100
AcDbPolyline
 90
       21
 70
   128
 43
0.0
 10
713.8735142243761
 20
2012.207106781182
 10
713.9023565637589
 20
2012.234817900556
 10
713.9322839815597
 20
2012.261353468042
 10
713.9632486002946
 20
2012.286671032393
 10
713.9952008831786
 20
2012.310730090906
 10
714.0280897133757
 20
2012.33349215422
 10
714.0618624757731
 20
2012.35492080789
 10
714.0964651411557
 20
2012.37498177064
 10
714.1318423526402
 20
2012.39364294921
 10
714.1679375142351
 20
2012.410874489695
 10
714.2046928813816
 20
2012.426648825306
 10
714.2420496533331
 20
2012.440940720471
 10
714.2799480672233
 20
2012.453727311207
 10
714.3183274936749
 20
2012.464988141696
 10
714.3571265337926
 20
2012.474705197011
 10
714.3962831173888
 20
2012.482862931936
 10
714.4357346022826
 20
2012.489448295838
 10
714.4754178745143
 20
2012.494450753536
 10
714.5152694493135
 20
2012.497862302167
 10
714.5552255726619
 20
2012.499677483981
 10
714.5806210055626
 20
2012.499999999995
  0
LWPOLYLINE
  5
E0
330
87
100
AcDbEntity
  8
P-SANR-FIXT
100
AcDbPolyline
 90
       21
 70
   128
 43
0.0
 10
714.5806210055626
 20
1987.499999999996
 10
714.540631671376
 20
1987.500799893335
 10
714.5007063115933
 20
1987.503198293693
 10
714.4609087982736
 20
1987.507191364142
 10
714.4213027989483
 20
1987.51277271662
 10
714.3819516747675
 20
1987.519933422154
 10
714.3429183791354
 20
1987.528662025144
 10
714.3042653569984
 20
1987.538944561685
 10
714.2660544449463
 20
1987.550764581913
 10
714.2283467722875
 20
1987.564103176318
 10
714.1912026632539
 20
1987.578939005993
 10
714.1546815404964
 20
1987.595248336775
 10
714.1188418300211
 20
1987.613005077216
 10
714.0837408677188
 20
1987.632180820318
 10
714.0494348076416
 20
1987.652744888982
 10
714.0159785321675
 20
1987.674664385086
 10
713.9834255642001
 20
1987.697904242111
 10
713.951827981544
 20
1987.722427281244
 10
713.9212363335912
 20
1987.748194270855
 10
713.891699560452
 20
1987.775163989255
 10
713.8735142243761
 20
1987.792893218809
  0
LINE
  5
E1
330
87
100
AcDbEntity
  8
P-SANR-FIXT
100
AcDbLine
 10
714.5806210055626
 20
1987.499999999996
 30
0.0
 11
720.0890571739998
 21
1987.499999999996
 31
0.0
  0
LINE
  5
E2
330
87
100
AcDbEntity
  8
P-SANR-FIXT
100
AcDbLine
 10
720.0890571739998
 20
2012.499999999995
 30
0.0
 11
714.5806210055626
 21
2012.499999999995
 31
0.0
  0
LINE
  5
E3
330
87
100
AcDbEntity
  8
P-SANR-FIXT
100
AcDbLine
 10
720.0890571739998
 20
1987.499999999996
 30
0.0
 11
720.6664074431895
 21
1986.499999999995
 31
0.0
  0
LINE
  5
E4
330
87
100
AcDbEntity
  8
P-SANR-FIXT
100
AcDbLine
 10
720.6664074431895
 20
2013.499999999996
 30
0.0
 11
720.0890571739998
 21
2012.499999999995
 31
0.0
  0
LINE
  5
E5
330
87
100
AcDbEntity
  8
P-SANR-FIXT
100
AcDbLine
 10
720.6664074431895
 20
1986.499999999995
 30
0.0
 11
721.532432846974
 21
1984.999999999996
 31
0.0
  0
LINE
  5
E6
330
87
100
AcDbEntity
  8
P-SANR-FIXT
100
AcDbLine
 10
721.532432846974
 20
2014.999999999996
 30
0.0
 11
720.6664074431895
 21
2013.499999999996
 31
0.0
  0
LINE
  5
E7
330
87
100
AcDbEntity
  8
P-SANR-FIXT
100
AcDbLine
 10
732.3003820394049
 20
1984.999999999996
 30
0.0
 11
733.1664074431895
 21
1986.499999999996
 31
0.0
  0
LINE
  5
E8
330
87
100
AcDbEntity
  8
P-SANR-FIXT
100
AcDbLine
 10
733.1664074431895
 20
2013.499999999995
 30
0.0
 11
732.3003820394049
 21
2014.999999999996
 31
0.0
  0
LINE
  5
E9
330
87
100
AcDbEntity
  8
P-SANR-FIXT
100
AcDbLine
 10
691.4164074431896
 20
2024.499999999996
 30
0.0
 11
691.4164074431896
 21
2013.140417815833
 31
0.0
  0
LINE
  5
EA
330
87
100
AcDbEntity
  8
P-SANR-FIXT
100
AcDbLine
 10
708.9164074431896
 20
2010.999999999995
 30
0.0
 11
708.9164074431896
 21
2024.499999999996
 31
0.0
  0
LINE
  5
EB
330
87
100
AcDbEntity
  8
P-SANR-FIXT
100
AcDbLine
 10
648.1664074431894
 20
2024.499999999996
 30
0.0
 11
647.7139737170428
 21
2024.047566273849
 31
0.0
  0
LINE
  5
EC
330
87
100
AcDbEntity
  8
P-SANR-FIXT
100
AcDbLine
 10
647.7081421419914
 20
2024.041734698798
 30
0.0
 11
647.6664074431894
 21
2023.999999999996
 31
0.0
  0
LINE
  5
ED
330
87
100
AcDbEntity
  8
P-SANR-FIXT
100
AcDbLine
 10
672.6664074431895
 20
2023.999999999996
 30
0.0
 11
672.6246727443877
 21
2024.041734698798
 31
0.0
  0
LINE
  5
EE
330
87
100
AcDbEntity
  8
P-SANR-FIXT
100
AcDbLine
 10
672.6188411693363
 20
2024.047566273849
 30
0.0
 11
672.1664074431895
 21
2024.499999999996
 31
0.0
  0
LINE
  5
EF
330
87
100
AcDbEntity
  8
P-SANR-FIXT
100
AcDbLine
 10
709.1664074431895
 20
2024.499999999996
 30
0.0
 11
709.1664074431895
 21
2026.499999999991
 31
0.0
  0
LINE
  5
F0
330
87
100
AcDbEntity
  8
P-SANR-FIXT
100
AcDbLine
 10
691.1664074431894
 20
2026.499999999991
 30
0.0
 11
691.1664074431894
 21
2024.499999999996
 31
0.0
  0
LINE
  5
F1
330
87
100
AcDbEntity
  8
P-SANR-FIXT
100
AcDbLine
 10
632.1664074431883
 20
2001.072292102613
 30
0.0
 11
632.1664074431883
 21
1999.020959488209
 31
0.0
  0
LINE
  5
F2
330
87
100
AcDbEntity
  8
P-SANR-FIXT
100
AcDbLine
 10
632.1664074431883
 20
1999.020959488209
 30
0.0
 11
632.1664074431883
 21
2001.072292102613
 31
0.0
  0
LINE
  5
F3
330
87
100
AcDbEntity
  8
P-SANR-FIXT
100
AcDbLine
 10
689.252860904468
 20
2011.499999999995
 30
0.0
 11
678.0596715800782
 21
2011.499999999995
 31
0.0
  0
LINE
  5
F4
330
87
100
AcDbEntity
  8
P-SANR-FIXT
100
AcDbLine
 10
678.0596715800782
 20
2011.499999999995
 30
0.0
 11
678.0596715800782
 21
2011.087177778578
 31
0.0
  0
LINE
  5
F5
330
87
100
AcDbEntity
  8
P-SANR-FIXT
100
AcDbLine
 10
672.6664074431887
 20
2023.999999999995
 30
0.0
 11
647.6664074431887
 21
2023.999999999995
 31
0.0
  0
LINE
  5
F6
330
87
100
AcDbEntity
  8
P-SANR-FIXT
100
AcDbLine
 10
733.1664074431887
 20
2013.499999999995
 30
0.0
 11
733.1664074431887
 21
2010.886486449682
 31
0.0
  0
LINE
  5
F7
330
87
100
AcDbEntity
  8
P-SANR-FIXT
100
AcDbLine
 10
733.1664074431887
 20
2010.843301674984
 30
0.0
 11
733.1664074431887
 21
1988.594476869124
 31
0.0
  0
LINE
  5
F8
330
87
100
AcDbEntity
  8
P-SANR-FIXT
100
AcDbLine
 10
733.1664074431887
 20
1988.532780623404
 30
0.0
 11
733.1664074431887
 21
1988.094062931292
 31
0.0
  0
LINE
  5
F9
330
87
100
AcDbEntity
  8
P-SANR-FIXT
100
AcDbLine
 10
733.1664074431887
 20
1988.034794448303
 30
0.0
 11
733.1664074431887
 21
1986.499999999995
 31
0.0
  0
LINE
  5
FA
330
87
100
AcDbEntity
  8
P-SANR-FIXT
100
AcDbLine
 10
733.1664074431887
 20
1999.020959488209
 30
0.0
 11
733.1664074431887
 21
2001.072292102613
 31
0.0
  0
LINE
  5
FB
330
87
100
AcDbEntity
  8
P-SANR-FIXT
100
AcDbLine
 10
733.1664074431887
 20
1988.094062931292
 30
0.0
 11
733.1664074431887
 21
1988.532780623404
 31
0.0
  0
LINE
  5
FC
330
87
100
AcDbEntity
  8
P-SANR-FIXT
100
AcDbLine
 10
733.1664074431887
 20
2010.886486449682
 30
0.0
 11
733.1664074431887
 21
2012.452047027841
 31
0.0
  0
LINE
  5
FD
330
87
100
AcDbEntity
  8
P-SANR-FIXT
100
AcDbLine
 10
733.1664074431887
 20
2001.072292102613
 30
0.0
 11
733.1664074431887
 21
1999.020959488209
 31
0.0
  0
LINE
  5
FE
330
87
100
AcDbEntity
  8
P-SANR-FIXT
100
AcDbLine
 10
632.1664074431883
 20
1986.499999999995
 30
0.0
 11
632.1664074431883
 21
1988.034794448303
 31
0.0
  0
LINE
  5
FF
330
87
100
AcDbEntity
  8
P-SANR-FIXT
100
AcDbLine
 10
632.1664074431883
 20
1988.094062931292
 30
0.0
 11
632.1664074431883
 21
1988.532780623404
 31
0.0
  0
LINE
  5
100
330
87
100
AcDbEntity
  8
P-SANR-FIXT
100
AcDbLine
 10
632.1664074431883
 20
1988.594476869124
 30
0.0
 11
632.1664074431883
 21
2010.843301674983
 31
0.0
  0
LINE
  5
101
330
87
100
AcDbEntity
  8
P-SANR-FIXT
100
AcDbLine
 10
632.1664074431883
 20
2010.886486449367
 30
0.0
 11
632.1664074431883
 21
2013.499999999995
 31
0.0
  0
SPLINE
  5
102
330
87
100
AcDbEntity
  8
P-SANR-FIXT
100
AcDbSpline
210
0.0
220
0.0
230
1.0
 70
     8
 71
     3
 72
     8
 73
     4
 74
     0
 42
0.000000001
 43
0.0000000001
 40
-1.0
 40
-1.0
 40
-1.0
 40
-1.0
 40
-0.5625000000000009
 40
-0.5625000000000009
 40
-0.5625000000000009
 40
-0.5625000000000009
 10
633.032432846973
 20
1985.047670149462
 30
0.0
 10
632.5429621510844
 20
1986.00157886344
 30
0.0
 10
632.2676348846471
 20
1986.949123074933
 30
0.0
 10
632.2064510476612
 20
1987.890302783942
 30
0.0
  0
SPLINE
  5
103
330
87
100
AcDbEntity
  8
P-SANR-FIXT
100
AcDbSpline
210
0.0
220
0.0
230
1.0
 70
     8
 71
     3
 72
     9
 73
     5
 74
     0
 42
0.000000001
 43
0.0000000001
 40
-0.532753442811019
 40
-0.532753442811019
 40
-0.532753442811019
 40
-0.532753442811019
 40
-0.5
 40
0.0
 40
0.0
 40
0.0
 40
0.0
 10
632.1969408994845
 20
1988.082192957408
 30
0.0
 10
632.1945404501279
 20
1988.152589594164
 30
0.0
 10
632.1750181106548
 20
1989.297050854528
 30
0.0
 10
632.4730377659603
 20
1990.432074529907
 30
0.0
 10
633.032432846973
 20
1991.489004639026
 30
0.0
  0
SPLINE
  5
104
330
87
100
AcDbEntity
  8
P-SANR-FIXT
100
AcDbSpline
210
0.0
220
0.0
230
1.0
 70
     8
 71
     3
 72
     9
 73
     5
 74
     0
 42
0.000000001
 43
0.0000000001
 40
-1.0
 40
-1.0
 40
-1.0
 40
-1.0
 40
-0.5
 40
0.0
 40
0.0
 40
0.0
 40
0.0
 10
633.032432846973
 20
1993.461651584684
 30
0.0
 10
632.4551171453358
 20
1995.673929599069
 30
0.0
 10
631.8778014436985
 20
2000.065657085224
 30
0.0
 10
632.4551171453357
 20
2004.39172748615
 30
0.0
 10
633.032432846973
 20
2006.538348415306
 30
0.0
  0
SPLINE
  5
105
330
87
100
AcDbEntity
  8
P-SANR-FIXT
100
AcDbSpline
210
0.0
220
0.0
230
1.0
 70
     8
 71
     3
 72
     9
 73
     5
 74
     0
 42
0.000000001
 43
0.0000000001
 40
-1.0
 40
-1.0
 40
-1.0
 40
-1.0
 40
-0.5
 40
-0.3714839720746486
 40
-0.3714839720746486
 40
-0.3714839720746486
 40
-0.3714839720746486
 10
633.032432846973
 20
2008.334214782905
 30
0.0
 10
632.4371962537013
 20
2009.455953954946
 30
0.0
 10
632.0630805144225
 20
2010.855874107828
 30
0.0
 10
632.1592402520154
 20
2012.243045511141
 30
0.0
 10
632.1985648419152
 20
2012.526154826877
 30
0.0
  0
SPLINE
  5
106
330
87
100
AcDbEntity
  8
P-SANR-FIXT
100
AcDbSpline
210
0.0
220
0.0
230
1.0
 70
     8
 71
     3
 72
     8
 73
     4
 74
     0
 42
0.000000001
 43
0.0000000001
 40
-0.3542299739121917
 40
-0.3542299739121917
 40
-0.3542299739121917
 40
-0.3542299739121917
 40
0.0
 40
0.0
 40
0.0
 40
0.0
 10
632.215466695952
 20
2012.640153048654
 30
0.0
 10
632.3384095108203
 20
2013.42009550719
 30
0.0
 10
632.6107315611606
 20
2014.195988427619
 30
0.0
 10
633.032432846973
 20
2014.967831809943
 30
0.0
  0
LINE
  5
107
330
87
100
AcDbEntity
  8
P-SANR-FIXT
100
AcDbLine
 10
632.1664074431883
 20
2012.452047027563
 30
0.0
 11
632.1664074431883
 21
2010.886486449367
 31
0.0
  0
LINE
  5
108
330
87
100
AcDbEntity
  8
P-SANR-FIXT
100
AcDbLine
 10
632.1664074431883
 20
1988.532780623404
 30
0.0
 11
632.1664074431883
 21
1988.094062931293
 31
0.0
  0
SPLINE
  5
109
330
87
100
AcDbEntity
  8
P-SANR-FIXT
100
AcDbSpline
210
0.0
220
0.0
230
1.0
 70
     8
 71
     3
 72
     8
 73
     4
 74
     0
 42
0.000000001
 43
0.0000000001
 40
-0.5077610443038938
 40
-0.5077610443038938
 40
-0.5077610443038938
 40
-0.5077610443038938
 40
-0.5
 40
-0.5
 40
-0.5
 40
-0.5
 10
632.1397930772681
 20
2011.678308422482
 30
0.0
 10
632.1396496637998
 20
2011.661143269455
 30
0.0
 10
632.1395073463571
 20
2011.643978146143
 30
0.0
 10
632.1395779570656
 20
2011.626818795122
 30
0.0
  0
SPLINE
  5
10A
330
87
100
AcDbEntity
  8
P-SANR-FIXT
100
AcDbSpline
210
0.0
220
0.0
230
1.0
 70
     8
 71
     3
 72
     8
 73
     4
 74
     0
 42
0.000000001
 43
0.0000000001
 40
-0.5082004758971289
 40
-0.5082004758971289
 40
-0.5082004758971289
 40
-0.5082004758971289
 40
-0.5
 40
-0.5
 40
-0.5
 40
-0.5
 10
632.1935659339975
 20
1988.296227651985
 30
0.0
 10
632.1934154616323
 20
1988.278615843758
 30
0.0
 10
632.1932662033009
 20
1988.261004071613
 30
0.0
 10
632.1933402254497
 20
1988.243398935531
 30
0.0
  0
LINE
  5
10B
330
87
100
AcDbEntity
  8
P-SANR-FIXT
100
AcDbLine
 10
633.032432846973
 20
1991.489004639026
 30
0.0
 11
633.032432846973
 21
1993.461651584684
 31
0.0
  0
LINE
  5
10C
330
87
100
AcDbEntity
  8
P-SANR-FIXT
100
AcDbLine
 10
633.032432846973
 20
1991.489004639026
 30
0.0
 11
643.8003820394037
 21
1991.489004639026
 31
0.0
  0
LINE
  5
10D
330
87
100
AcDbEntity
  8
P-SANR-FIXT
100
AcDbLine
 10
643.8003820394037
 20
1993.461651584684
 30
0.0
 11
633.032432846973
 21
1993.461651584684
 31
0.0
  0
LINE
  5
10E
330
87
100
AcDbEntity
  8
P-SANR-FIXT
100
AcDbLine
 10
633.032432846973
 20
2006.538348415306
 30
0.0
 11
633.032432846973
 21
2008.334214782905
 31
0.0
  0
LINE
  5
10F
330
87
100
AcDbEntity
  8
P-SANR-FIXT
100
AcDbLine
 10
633.032432846973
 20
2006.538348415306
 30
0.0
 11
643.8003820394037
 21
2006.538348415306
 31
0.0
  0
LINE
  5
110
330
87
100
AcDbEntity
  8
P-SANR-FIXT
100
AcDbLine
 10
643.8003820394037
 20
2008.334214782905
 30
0.0
 11
633.032432846973
 21
2008.334214782905
 31
0.0
  0
LINE
  5
111
330
87
100
AcDbEntity
  8
P-SANR-FIXT
100
AcDbLine
 10
633.0324328469728
 20
2014.967831809943
 30
0.0
 11
633.0324328469728
 21
2014.999999999995
 31
0.0
  0
LINE
  5
112
330
87
100
AcDbEntity
  8
P-SANR-FIXT
100
AcDbLine
 10
633.032432846973
 20
2014.967831809943
 30
0.0
 11
643.8003820394037
 21
2014.967831809943
 31
0.0
  0
LINE
  5
113
330
87
100
AcDbEntity
  8
P-SANR-FIXT
100
AcDbLine
 10
643.8003820394037
 20
1985.047670149462
 30
0.0
 11
633.032432846973
 21
1985.047670149462
 31
0.0
  0
LINE
  5
114
330
87
100
AcDbEntity
  8
P-SANR-FIXT
100
AcDbLine
 10
633.032432846973
 20
1984.999999999995
 30
0.0
 11
633.032432846973
 21
1985.047670149462
 31
0.0
  0
LINE
  5
115
330
87
100
AcDbEntity
  8
P-SANR-FIXT
100
AcDbLine
 10
643.8003820394039
 20
2014.967831809943
 30
0.0
 11
643.8003820394039
 21
2014.999999999995
 31
0.0
  0
SPLINE
  5
116
330
87
100
AcDbEntity
  8
P-SANR-FIXT
100
AcDbSpline
210
0.0
220
0.0
230
1.0
 70
     8
 71
     3
 72
     9
 73
     5
 74
     0
 42
0.000000001
 43
0.0000000001
 40
-1.0
 40
-1.0
 40
-1.0
 40
-1.0
 40
-0.5
 40
0.0
 40
0.0
 40
0.0
 40
0.0
 10
643.8003820394037
 20
2014.967831809943
 30
0.0
 10
644.3956186326753
 20
2013.878365306306
 30
0.0
 10
644.990855225947
 20
2011.683295964827
 30
0.0
 10
644.3956186326753
 20
2009.455953954946
 30
0.0
 10
643.8003820394037
 20
2008.334214782905
 30
0.0
  0
LINE
  5
117
330
87
100
AcDbEntity
  8
P-SANR-FIXT
100
AcDbLine
 10
643.8003820394037
 20
2006.538348415306
 30
0.0
 11
643.8003820394037
 21
2008.334214782905
 31
0.0
  0
SPLINE
  5
118
330
87
100
AcDbEntity
  8
P-SANR-FIXT
100
AcDbSpline
210
0.0
220
0.0
230
1.0
 70
     8
 71
     3
 72
     9
 73
     5
 74
     0
 42
0.000000001
 43
0.0000000001
 40
-1.0
 40
-1.0
 40
-1.0
 40
-1.0
 40
-0.5
 40
0.0
 40
0.0
 40
0.0
 40
0.0
 10
643.8003820394037
 20
2006.538348415306
 30
0.0
 10
644.377697741041
 20
2004.39172748615
 30
0.0
 10
644.9550134426783
 20
2000.065657085224
 30
0.0
 10
644.377697741041
 20
1995.673929599069
 30
0.0
 10
643.8003820394037
 20
1993.461651584684
 30
0.0
  0
LINE
  5
119
330
87
100
AcDbEntity
  8
P-SANR-FIXT
100
AcDbLine
 10
643.8003820394037
 20
1991.489004639026
 30
0.0
 11
643.8003820394037
 21
1993.461651584684
 31
0.0
  0
SPLINE
  5
11A
330
87
100
AcDbEntity
  8
P-SANR-FIXT
100
AcDbSpline
210
0.0
220
0.0
230
1.0
 70
     8
 71
     3
 72
     9
 73
     5
 74
     0
 42
0.000000001
 43
0.0000000001
 40
-1.0
 40
-1.0
 40
-1.0
 40
-1.0
 40
-0.5
 40
0.0
 40
0.0
 40
0.0
 40
0.0
 10
643.8003820394037
 20
1991.489004639026
 30
0.0
 10
644.3597771204192
 20
1990.432074529907
 30
0.0
 10
644.9191722014347
 20
1988.301588672528
 30
0.0
 10
644.3597771204192
 20
1986.137851536865
 30
0.0
 10
643.8003820394037
 20
1985.047670149462
 30
0.0
  0
LINE
  5
11B
330
87
100
AcDbEntity
  8
P-SANR-FIXT
100
AcDbLine
 10
643.8003820394037
 20
1984.999999999995
 30
0.0
 11
643.8003820394037
 21
1985.047670149462
 31
0.0
  0
LINE
  5
11C
330
87
100
AcDbEntity
  8
P-SANR-FIXT
100
AcDbLine
 10
645.243757712378
 20
1987.499999999995
 30
0.0
 11
645.243757712378
 21
2012.499999999995
 31
0.0
  0
SPLINE
  5
11D
330
87
100
AcDbEntity
  8
P-SANR-FIXT
100
AcDbSpline
210
0.0
220
0.0
230
1.0
 70
     8
 71
     3
 72
    17
 73
    13
 74
     0
 42
0.000000001
 43
0.0000000001
 40
-1.0
 40
-1.0
 40
-1.0
 40
-1.0
 40
-0.75
 40
-0.625
 40
-0.5625
 40
-0.5
 40
-0.4375
 40
-0.375
 40
-0.3125
 40
-0.25
 40
-0.125
 40
0.0
 40
0.0
 40
0.0
 40
0.0
 10
668.0671566475516
 20
2007.900749204358
 30
0.0
 10
668.7028620281457
 20
2008.519249676771
 30
0.0
 10
669.5757855138141
 20
2009.412176624748
 30
0.0
 10
670.4901657054165
 20
2010.325044954939
 30
0.0
 10
670.9712715354226
 20
2010.800243361329
 30
0.0
 10
671.2974516854379
 20
2011.131005034113
 30
0.0
 10
671.595812201348
 20
2011.434182321577
 30
0.0
 10
671.8711382837748
 20
2011.706103348633
 30
0.0
 10
672.1118772405848
 20
2011.942782197101
 30
0.0
 10
672.3731040407111
 20
2012.206823665877
 30
0.0
 10
672.5896461928706
 20
2012.43553313589
 30
0.0
 10
672.6588925204609
 20
2012.499999999995
 30
0.0
 10
672.6664074431887
 20
2012.499999999995
 30
0.0
  0
SPLINE
  5
11E
330
87
100
AcDbEntity
  8
P-SANR-FIXT
100
AcDbSpline
210
0.0
220
0.0
230
1.0
 70
     8
 71
     3
 72
    15
 73
    11
 74
     0
 42
0.000000001
 43
0.0000000001
 40
-1.0
 40
-1.0
 40
-1.0
 40
-1.0
 40
-0.875
 40
-0.75
 40
-0.625
 40
-0.5
 40
-0.4375
 40
-0.375
 40
-0.25
 40
0.0
 40
0.0
 40
0.0
 40
0.0
 10
647.6664074431887
 20
2012.499999999995
 30
0.0
 10
647.6739223659166
 20
2012.499999999995
 30
0.0
 10
647.7436230245111
 20
2012.435485088596
 30
0.0
 10
648.0014291175832
 20
2012.161249937406
 30
0.0
 10
648.4447623185431
 20
2011.723858007493
 30
0.0
 10
648.9276006776552
 20
2011.241222956108
 30
0.0
 10
649.3613657363835
 20
2010.800249987186
 30
0.0
 10
649.8427506750019
 20
2010.325041168735
 30
0.0
 10
650.756953252033
 20
2009.4121794644
 30
0.0
 10
651.6299528582318
 20
2008.519249676771
 30
0.0
 10
652.2656582388258
 20
2007.900749204358
 30
0.0
  0
SPLINE
  5
11F
330
87
100
AcDbEntity
  8
P-SANR-FIXT
100
AcDbSpline
210
0.0
220
0.0
230
1.0
 70
     8
 71
     3
 72
    10
 73
     6
 74
     0
 42
0.000000001
 43
0.0000000001
 40
0.0
 40
0.0
 40
0.0
 40
0.0
 40
0.3333333333333333
 40
0.6666666666666666
 40
1.0
 40
1.0
 40
1.0
 40
1.0
 10
678.0596715800782
 20
2011.087177778578
 30
0.0
 10
678.1850491712593
 20
2010.911240127319
 30
0.0
 10
678.3948641503851
 20
2010.543116695124
 30
0.0
 10
678.5912309492519
 20
2009.925995294647
 30
0.0
 10
678.6343084888387
 20
2009.503673919199
 30
0.0
 10
678.6346330003659
 20
2009.287087810498
 30
0.0
  0
SPLINE
  5
120
330
87
100
AcDbEntity
  8
P-SANR-FIXT
100
AcDbSpline
210
0.0
220
0.0
230
1.0
 70
     8
 71
     3
 72
     8
 73
     4
 74
     0
 42
0.000000001
 43
0.0000000001
 40
0.0475742999639684
 40
0.0475742999639684
 40
0.0475742999639684
 40
0.0475742999639684
 40
0.057240816844257
 40
0.057240816844257
 40
0.057240816844257
 40
0.057240816844257
 10
678.6509053178457
 20
2006.582413854915
 30
0.0
 10
678.653019951158
 20
2006.560857503407
 30
0.0
 10
678.6553413886486
 20
2006.539346677689
 30
0.0
 10
678.657870284517
 20
2006.517879588559
 30
0.0
  0
SPLINE
  5
121
330
87
100
AcDbEntity
  8
P-SANR-FIXT
100
AcDbSpline
210
0.0
220
0.0
230
1.0
 70
     8
 71
     3
 72
    10
 73
     6
 74
     0
 42
0.000000001
 43
0.0000000001
 40
0.1111111111111111
 40
0.1111111111111111
 40
0.1111111111111111
 40
0.1111111111111111
 40
0.2222222222222222
 40
0.3333333333333333
 40
0.3640577932907308
 40
0.3640577932907308
 40
0.3640577932907308
 40
0.3640577932907308
 10
678.7195922433569
 20
2006.162744654293
 30
0.0
 10
678.775472292405
 20
2005.920957138473
 30
0.0
 10
678.9430151575372
 20
2005.446304647442
 30
0.0
 10
679.2471474318825
 20
2004.963460149014
 30
0.0
 10
679.453454395914
 20
2004.721138022706
 30
0.0
 10
679.4997592021407
 20
2004.670101332394
 30
0.0
  0
SPLINE
  5
122
330
87
100
AcDbEntity
  8
P-SANR-FIXT
100
AcDbSpline
210
0.0
220
0.0
230
1.0
 70
     8
 71
     3
 72
    18
 73
    14
 74
     0
 42
0.000000001
 43
0.0000000001
 40
0.0
 40
0.0
 40
0.0
 40
0.0
 40
0.0555555555555556
 40
0.1111111111111111
 40
0.1666666666666666
 40
0.2222222222222222
 40
0.2777777777777778
 40
0.3333333333333333
 40
0.3611111111111111
 40
0.3888888888888888
 40
0.4166666666666666
 40
0.4305555555555556
 40
0.436865350938694
 40
0.436865350938694
 40
0.436865350938694
 40
0.436865350938694
 10
708.9164074431887
 20
2010.999999999995
 30
0.0
 10
708.9069343490283
 20
2010.999999999995
 30
0.0
 10
708.8244523029281
 20
2010.938123702471
 30
0.0
 10
708.5219182333571
 20
2010.6849133755
 30
0.0
 10
708.0051834446146
 20
2010.288174560718
 30
0.0
 10
707.3300630227476
 20
2009.782547728709
 30
0.0
 10
706.5305279904329
 20
2009.203447217534
 30
0.0
 10
705.7537456252695
 20
2008.692008154501
 30
0.0
 10
705.0859346018959
 20
2008.28161585769
 30
0.0
 10
704.5551269062357
 20
2007.970183846195
 30
0.0
 10
704.0905165259722
 20
2007.723034230505
 30
0.0
 10
703.7579098345299
 20
2007.564316041042
 30
0.0
 10
703.6158305458731
 20
2007.501230059444
 30
0.0
 10
703.5712011629926
 20
2007.481821260746
 30
0.0
  0
LINE
  5
123
330
87
100
AcDbEntity
  8
P-SANR-FIXT
100
AcDbLine
 10
712.6664074431886
 20
1994.314259144351
 30
0.0
 11
712.6664074431886
 21
2010.999999999995
 31
0.0
  0
LINE
  5
124
330
87
100
AcDbEntity
  8
P-SANR-FIXT
100
AcDbLine
 10
720.089057173999
 20
1987.499999999995
 30
0.0
 11
720.089057173999
 21
2012.499999999995
 31
0.0
  0
SPLINE
  5
125
330
87
100
AcDbEntity
  8
P-SANR-FIXT
100
AcDbSpline
210
0.0
220
0.0
230
1.0
 70
     8
 71
     3
 72
     8
 73
     4
 74
     0
 42
0.000000001
 43
0.0000000001
 40
-1.0
 40
-1.0
 40
-1.0
 40
-1.0
 40
-0.5327534428110504
 40
-0.5327534428110504
 40
-0.5327534428110504
 40
-0.5327534428110504
 10
721.5324328469732
 20
1985.047670149462
 30
0.0
 10
721.0096819955474
 20
1986.066437149413
 30
0.0
 10
720.7311846797177
 20
1987.077944752062
 30
0.0
 10
720.6969408994845
 20
1988.082192957408
 30
0.0
  0
SPLINE
  5
126
330
87
100
AcDbEntity
  8
P-SANR-FIXT
100
AcDbSpline
210
0.0
220
0.0
230
1.0
 70
     8
 71
     3
 72
     8
 73
     4
 74
     0
 42
0.000000001
 43
0.0000000001
 40
-0.5
 40
-0.5
 40
-0.5
 40
-0.5
 40
0.0
 40
0.0
 40
0.0
 40
0.0
 10
720.6933402254499
 20
1988.293275852957
 30
0.0
 10
720.6933402254499
 20
1989.366831601218
 30
0.0
 10
720.9730377659576
 20
1990.432074529907
 30
0.0
 10
721.5324328469732
 20
1991.489004639026
 30
0.0
  0
SPLINE
  5
127
330
87
100
AcDbEntity
  8
P-SANR-FIXT
100
AcDbSpline
210
0.0
220
0.0
230
1.0
 70
     8
 71
     3
 72
     9
 73
     5
 74
     0
 42
0.000000001
 43
0.0000000001
 40
-1.0
 40
-1.0
 40
-1.0
 40
-1.0
 40
-0.5
 40
0.0
 40
0.0
 40
0.0
 40
0.0
 10
721.5324328469732
 20
1993.461651584684
 30
0.0
 10
720.9551171453358
 20
1995.673929599069
 30
0.0
 10
720.3778014436986
 20
2000.065657085224
 30
0.0
 10
720.9551171453358
 20
2004.39172748615
 30
0.0
 10
721.5324328469732
 20
2006.538348415306
 30
0.0
  0
SPLINE
  5
128
330
87
100
AcDbEntity
  8
P-SANR-FIXT
100
AcDbSpline
210
0.0
220
0.0
230
1.0
 70
     8
 71
     3
 72
     8
 73
     4
 74
     0
 42
0.000000001
 43
0.0000000001
 40
-1.0
 40
-1.0
 40
-1.0
 40
-1.0
 40
-0.5722072606230377
 40
-0.5722072606230377
 40
-0.5722072606230377
 40
-0.5722072606230377
 10
721.5324328469732
 20
2008.334214782905
 30
0.0
 10
721.0231570613471
 20
2009.293958529453
 30
0.0
 10
720.7317457591521
 20
2010.247796163784
 30
0.0
 10
720.6581989403888
 20
2011.195727685899
 30
0.0
  0
SPLINE
  5
129
330
87
100
AcDbEntity
  8
P-SANR-FIXT
100
AcDbSpline
210
0.0
220
0.0
230
1.0
 70
     8
 71
     3
 72
     8
 73
     4
 74
     0
 42
0.000000001
 43
0.0000000001
 40
-0.3714839720745927
 40
-0.3714839720745927
 40
-0.3714839720745927
 40
-0.3714839720745927
 40
0.0
 40
0.0
 40
0.0
 40
0.0
 10
720.6985648419154
 20
2012.526154826878
 30
0.0
 10
720.8122351373019
 20
2013.344500793827
 30
0.0
 10
721.0901911389877
 20
2014.158393121516
 30
0.0
 10
721.5324328469732
 20
2014.967831809943
 30
0.0
  0
SPLINE
  5
12A
330
87
100
AcDbEntity
  8
P-SANR-FIXT
100
AcDbSpline
210
0.0
220
0.0
230
1.0
 70
     8
 71
     3
 72
     8
 73
     4
 74
     0
 42
0.000000001
 43
0.0000000001
 40
-0.5082004758971115
 40
-0.5082004758971115
 40
-0.5082004758971115
 40
-0.5082004758971115
 40
-0.5
 40
-0.5
 40
-0.5
 40
-0.5
 10
720.6935659339977
 20
1988.296227651985
 30
0.0
 10
720.6934154616326
 20
1988.278615843758
 30
0.0
 10
720.6932662033011
 20
1988.261004071613
 30
0.0
 10
720.6933402254499
 20
1988.243398935531
 30
0.0
  0
LINE
  5
12B
330
87
100
AcDbEntity
  8
P-SANR-FIXT
100
AcDbLine
 10
721.5324328469732
 20
2014.967831809943
 30
0.0
 11
721.5324328469732
 21
2014.999999999995
 31
0.0
  0
LINE
  5
12C
330
87
100
AcDbEntity
  8
P-SANR-FIXT
100
AcDbLine
 10
721.5324328469732
 20
2014.967831809943
 30
0.0
 11
732.3003820394041
 21
2014.967831809943
 31
0.0
  0
LINE
  5
12D
330
87
100
AcDbEntity
  8
P-SANR-FIXT
100
AcDbLine
 10
732.3003820394041
 20
1985.047670149462
 30
0.0
 11
721.5324328469732
 21
1985.047670149462
 31
0.0
  0
LINE
  5
12E
330
87
100
AcDbEntity
  8
P-SANR-FIXT
100
AcDbLine
 10
721.5324328469732
 20
1984.999999999995
 30
0.0
 11
721.5324328469732
 21
1985.047670149462
 31
0.0
  0
LINE
  5
12F
330
87
100
AcDbEntity
  8
P-SANR-FIXT
100
AcDbLine
 10
721.5324328469732
 20
1991.489004639025
 30
0.0
 11
721.5324328469732
 21
1993.461651584684
 31
0.0
  0
LINE
  5
130
330
87
100
AcDbEntity
  8
P-SANR-FIXT
100
AcDbLine
 10
721.5324328469732
 20
1991.489004639026
 30
0.0
 11
732.3003820394041
 21
1991.489004639026
 31
0.0
  0
LINE
  5
131
330
87
100
AcDbEntity
  8
P-SANR-FIXT
100
AcDbLine
 10
732.3003820394041
 20
1993.461651584684
 30
0.0
 11
721.5324328469732
 21
1993.461651584684
 31
0.0
  0
LINE
  5
132
330
87
100
AcDbEntity
  8
P-SANR-FIXT
100
AcDbLine
 10
721.5324328469732
 20
2006.538348415305
 30
0.0
 11
721.5324328469732
 21
2008.334214782905
 31
0.0
  0
LINE
  5
133
330
87
100
AcDbEntity
  8
P-SANR-FIXT
100
AcDbLine
 10
721.5324328469732
 20
2006.538348415306
 30
0.0
 11
732.3003820394041
 21
2006.538348415306
 31
0.0
  0
LINE
  5
134
330
87
100
AcDbEntity
  8
P-SANR-FIXT
100
AcDbLine
 10
732.3003820394041
 20
2008.334214782905
 30
0.0
 11
721.5324328469732
 21
2008.334214782905
 31
0.0
  0
LINE
  5
135
330
87
100
AcDbEntity
  8
P-SANR-FIXT
100
AcDbLine
 10
732.3003820394041
 20
2014.967831809943
 30
0.0
 11
732.3003820394041
 21
2014.999999999995
 31
0.0
  0
SPLINE
  5
136
330
87
100
AcDbEntity
  8
P-SANR-FIXT
100
AcDbSpline
210
0.0
220
0.0
230
1.0
 70
     8
 71
     3
 72
     8
 73
     4
 74
     0
 42
0.000000001
 43
0.0000000001
 40
-1.0
 40
-1.0
 40
-1.0
 40
-1.0
 40
-0.6457700261126421
 40
-0.6457700261126421
 40
-0.6457700261126421
 40
-0.6457700261126421
 10
732.3003820394041
 20
2014.967831809943
 30
0.0
 10
732.7220833251868
 20
2014.195988427673
 30
0.0
 10
732.9944053755187
 20
2013.420095507298
 30
0.0
 10
733.1173481903991
 20
2012.640153048819
 30
0.0
  0
SPLINE
  5
137
330
87
100
AcDbEntity
  8
P-SANR-FIXT
100
AcDbSpline
210
0.0
220
0.0
230
1.0
 70
     8
 71
     3
 72
     9
 73
     5
 74
     0
 42
0.000000001
 43
0.0000000001
 40
-0.6285160279253884
 40
-0.6285160279253884
 40
-0.6285160279253884
 40
-0.6285160279253884
 40
-0.5
 40
0.0
 40
0.0
 40
0.0
 40
0.0
 10
733.134250044462
 20
2012.526154826878
 30
0.0
 10
733.1735746343617
 20
2012.243045511141
 30
0.0
 10
733.2697343719546
 20
2010.855874107828
 30
0.0
 10
732.8956186326756
 20
2009.455953954946
 30
0.0
 10
732.3003820394041
 20
2008.334214782905
 30
0.0
  0
LINE
  5
138
330
87
100
AcDbEntity
  8
P-SANR-FIXT
100
AcDbLine
 10
732.3003820394041
 20
2006.538348415305
 30
0.0
 11
732.3003820394041
 21
2008.334214782905
 31
0.0
  0
SPLINE
  5
139
330
87
100
AcDbEntity
  8
P-SANR-FIXT
100
AcDbSpline
210
0.0
220
0.0
230
1.0
 70
     8
 71
     3
 72
     9
 73
     5
 74
     0
 42
0.000000001
 43
0.0000000001
 40
-1.0
 40
-1.0
 40
-1.0
 40
-1.0
 40
-0.5
 40
0.0
 40
0.0
 40
0.0
 40
0.0
 10
732.3003820394041
 20
2006.538348415306
 30
0.0
 10
732.8776977410414
 20
2004.39172748615
 30
0.0
 10
733.4550134426786
 20
2000.065657085224
 30
0.0
 10
732.8776977410414
 20
1995.673929599069
 30
0.0
 10
732.3003820394041
 20
1993.461651584684
 30
0.0
  0
LINE
  5
13A
330
87
100
AcDbEntity
  8
P-SANR-FIXT
100
AcDbLine
 10
732.3003820394041
 20
1991.489004639025
 30
0.0
 11
732.3003820394041
 21
1993.461651584684
 31
0.0
  0
SPLINE
  5
13B
330
87
100
AcDbEntity
  8
P-SANR-FIXT
100
AcDbSpline
210
0.0
220
0.0
230
1.0
 70
     8
 71
     3
 72
     9
 73
     5
 74
     0
 42
0.000000001
 43
0.0000000001
 40
-1.0
 40
-1.0
 40
-1.0
 40
-1.0
 40
-0.5
 40
-0.4672465571889668
 40
-0.4672465571889668
 40
-0.4672465571889668
 40
-0.4672465571889668
 10
732.3003820394041
 20
1991.489004639026
 30
0.0
 10
732.8597771204195
 20
1990.432074529907
 30
0.0
 10
733.1577967757221
 20
1989.297050854528
 30
0.0
 10
733.138274436249
 20
1988.152589594164
 30
0.0
 10
733.1358739868926
 20
1988.082192957408
 30
0.0
  0
SPLINE
  5
13C
330
87
100
AcDbEntity
  8
P-SANR-FIXT
100
AcDbSpline
210
0.0
220
0.0
230
1.0
 70
     8
 71
     3
 72
     8
 73
     4
 74
     0
 42
0.000000001
 43
0.0000000001
 40
-0.4374999999999987
 40
-0.4374999999999987
 40
-0.4374999999999987
 40
-0.4374999999999987
 40
0.0
 40
0.0
 40
0.0
 40
0.0
 10
733.126363838716
 20
1987.890302783942
 30
0.0
 10
733.0651800017299
 20
1986.949123074933
 30
0.0
 10
732.7898527352926
 20
1986.00157886344
 30
0.0
 10
732.3003820394041
 20
1985.047670149462
 30
0.0
  0
LINE
  5
13D
330
87
100
AcDbEntity
  8
P-SANR-FIXT
100
AcDbLine
 10
732.3003820394041
 20
1984.999999999995
 30
0.0
 11
732.3003820394041
 21
1985.047670149462
 31
0.0
  0
SPLINE
  5
13E
330
87
100
AcDbEntity
  8
P-SANR-FIXT
100
AcDbSpline
210
0.0
220
0.0
230
1.0
 70
     8
 71
     3
 72
     8
 73
     4
 74
     0
 42
0.000000001
 43
0.0000000001
 40
-0.5
 40
-0.5
 40
-0.5
 40
-0.5
 40
-0.4917995241028818
 40
-0.4917995241028818
 40
-0.4917995241028818
 40
-0.4917995241028818
 10
733.1394746609273
 20
1988.243398935531
 30
0.0
 10
733.1394746609273
 20
1988.261006271607
 30
0.0
 10
733.1392514202696
 20
1988.278620242561
 30
0.0
 10
733.1388122211969
 20
1988.296240631961
 30
0.0
  0
SPLINE
  5
13F
330
87
100
AcDbEntity
  8
P-SANR-FIXT
100
AcDbSpline
210
0.0
220
0.0
230
1.0
 70
     8
 71
     3
 72
     8
 73
     4
 74
     0
 42
0.000000001
 43
0.0000000001
 40
-0.5
 40
-0.5
 40
-0.5
 40
-0.5
 40
-0.4922389556961164
 40
-0.4922389556961164
 40
-0.4922389556961164
 40
-0.4922389556961164
 10
733.1932369293115
 20
2011.626818795122
 30
0.0
 10
733.1932369293115
 20
2011.643980060336
 30
0.0
 10
733.1930240351855
 20
2011.66114709692
 30
0.0
 10
733.1926048215033
 20
2011.678319726644
 30
0.0
  0
LINE
  5
140
330
87
100
AcDbEntity
  8
P-SANR-FIXT
100
AcDbLine
 10
648.1664074431888
 20
2024.499999999996
 30
0.0
 11
672.1664074431887
 21
2024.499999999996
 31
0.0
  0
LINE
  5
141
330
87
100
AcDbEntity
  8
P-SANR-FIXT
100
AcDbLine
 10
652.2656582388257
 20
2007.900749204358
 30
0.0
 11
668.0671566475516
 21
2007.900749204358
 31
0.0
  0
LINE
  5
142
330
87
100
AcDbEntity
  8
P-SANR-FIXT
100
AcDbLine
 10
708.8266614810331
 20
2026.499999999991
 30
0.0
 11
708.8266614810331
 21
2029.999999999995
 31
0.0
  0
LINE
  5
143
330
87
100
AcDbEntity
  8
P-SANR-FIXT
100
AcDbLine
 10
704.4965344621108
 20
2029.999999999995
 30
0.0
 11
704.4965344621108
 21
2026.499999999991
 31
0.0
  0
LINE
  5
144
330
87
100
AcDbEntity
  8
P-SANR-FIXT
100
AcDbLine
 10
695.8362804242665
 20
2029.999999999995
 30
0.0
 11
695.8362804242665
 21
2026.499999999991
 31
0.0
  0
LINE
  5
145
330
87
100
AcDbEntity
  8
P-SANR-FIXT
100
AcDbLine
 10
691.5061534053444
 20
2029.999999999995
 30
0.0
 11
691.5061534053444
 21
2026.499999999991
 31
0.0
  0
LINE
  5
146
330
87
100
AcDbEntity
  8
P-SANR-FIXT
100
AcDbLine
 10
691.1664074431887
 20
2024.499999999996
 30
0.0
 11
709.1664074431887
 21
2024.499999999996
 31
0.0
  0
LINE
  5
147
330
87
100
AcDbEntity
  8
P-SANR-FIXT
100
AcDbLine
 10
691.1664074431887
 20
2026.499999999991
 30
0.0
 11
709.1664074431887
 21
2026.499999999991
 31
0.0
  0
LINE
  5
148
330
87
100
AcDbEntity
  8
P-SANR-FIXT
100
AcDbLine
 10
695.8362804242665
 20
2029.999999999995
 30
0.0
 11
691.5061534053444
 21
2029.999999999995
 31
0.0
  0
LINE
  5
149
330
87
100
AcDbEntity
  8
P-SANR-FIXT
100
AcDbLine
 10
704.4965344621108
 20
2029.999999999995
 30
0.0
 11
695.8362804242665
 21
2029.999999999995
 31
0.0
  0
LINE
  5
14A
330
87
100
AcDbEntity
  8
P-SANR-FIXT
100
AcDbLine
 10
708.8266614810331
 20
2029.999999999995
 30
0.0
 11
704.4965344621108
 21
2029.999999999995
 31
0.0
  0
ENDBLK
  5
14C
330
87
100
AcDbEntity
  8
0
100
AcDbBlockEnd
  0
BLOCK
  5
206
330
14E
100
AcDbEntity
  8
0
100
AcDbBlockBegin
  2
Automatic flow rate regulator valve_Caleffi_121 DN15 - 1_2__-V1-Est - Idraulica
 70
     0
 10
0.0
 20
0.0
 30
0.0
  3
Automatic flow rate regulator valve_Caleffi_121 DN15 - 1_2__-V1-Est - Idraulica
  1

  0
ARC
  5
14F
330
14E
100
AcDbEntity
  8
P-SANR-FIXT
100
AcDbCircle
 10
660.1664074431887
 20
1806.245878730052
 30
0.0
 40
9.0
100
AcDbArc
 50
180.0
 51
0.0
  0
ARC
  5
150
330
14E
100
AcDbEntity
  8
P-SANR-FIXT
100
AcDbCircle
 10
660.1664074431887
 20
1806.245878730052
 30
0.0
 40
9.000000000000113
100
AcDbArc
 50
0.0
 51
180.0
  0
LINE
  5
151
330
14E
100
AcDbEntity
  8
P-SANR-FIXT
100
AcDbLine
 10
651.5061534053444
 20
1806.245878730052
 30
0.0
 11
655.8362804242665
 21
1798.745878730052
 31
0.0
  0
LINE
  5
152
330
14E
100
AcDbEntity
  8
P-SANR-FIXT
100
AcDbLine
 10
655.8362804242665
 20
1798.745878730052
 30
0.0
 11
664.4965344621109
 21
1798.745878730052
 31
0.0
  0
LINE
  5
153
330
14E
100
AcDbEntity
  8
P-SANR-FIXT
100
AcDbLine
 10
664.4965344621109
 20
1798.745878730052
 30
0.0
 11
668.8266614810331
 21
1806.245878730052
 31
0.0
  0
LINE
  5
154
330
14E
100
AcDbEntity
  8
P-SANR-FIXT
100
AcDbLine
 10
668.8266614810331
 20
1806.245878730052
 30
0.0
 11
664.4965344621109
 21
1813.745878730052
 31
0.0
  0
LINE
  5
155
330
14E
100
AcDbEntity
  8
P-SANR-FIXT
100
AcDbLine
 10
664.4965344621109
 20
1813.745878730052
 30
0.0
 11
655.8362804242665
 21
1813.745878730052
 31
0.0
  0
LINE
  5
156
330
14E
100
AcDbEntity
  8
P-SANR-FIXT
100
AcDbLine
 10
655.8362804242665
 20
1813.745878730052
 30
0.0
 11
651.5061534053443
 21
1806.245878730052
 31
0.0
  0
LWPOLYLINE
  5
157
330
14E
100
AcDbEntity
  8
P-SANR-FIXT
100
AcDbPolyline
 90
       22
 70
   128
 43
0.0
 10
704.0442581669621
 20
1789.495878730053
 10
704.5684586531244
 20
1789.514153550027
 10
705.0898045866919
 20
1789.568737924956
 10
705.6055701383802
 20
1789.658931631635
 10
706.1132709935264
 20
1789.783630940051
 10
706.6107487440854
 20
1789.941412417353
 10
707.0962202011392
 20
1790.130631020739
 10
707.5682912948501
 20
1790.349519233253
 10
708.0259404863194
 20
1790.596276279248
 10
708.468479800405
 20
1790.869140263625
 10
708.8955025397972
 20
1791.166440162583
 10
709.3068259245066
 20
1791.486628009647
 10
709.7024350585101
 20
1791.828293907449
 10
710.0824324628558
 20
1792.190167622703
 10
710.4469954315551
 20
1792.571110724238
 10
710.7963419203577
 20
1792.970102830622
 10
711.1307046321303
 20
1793.386224848269
 10
711.450312360941
 20
1793.818641325874
 10
711.7553773940325
 20
1794.266583360854
 10
712.046087735039
 20
1794.729332930415
 10
712.3226030088466
 20
1795.206209097986
 10
712.3439674832297
 20
1795.246125298416
  0
LWPOLYLINE
  5
158
330
14E
100
AcDbEntity
  8
P-SANR-FIXT
100
AcDbPolyline
 90
       22
 70
   128
 43
0.0
 10
704.0442581669621
 20
1822.995878730053
 10
704.5684586531244
 20
1822.977603910079
 10
705.0898045866918
 20
1822.92301953515
 10
705.6055701383802
 20
1822.83282582847
 10
706.1132709935264
 20
1822.708126520054
 10
706.6107487440854
 20
1822.550345042753
 10
707.0962202011392
 20
1822.361126439367
 10
707.5682912948501
 20
1822.142238226853
 10
708.0259404863194
 20
1821.895481180858
 10
708.468479800405
 20
1821.622617196481
 10
708.8955025397972
 20
1821.325317297522
 10
709.3068259245066
 20
1821.005129450458
 10
709.7024350585101
 20
1820.663463552656
 10
710.0824324628556
 20
1820.301589837402
 10
710.4469954315551
 20
1819.920646735867
 10
710.7963419203577
 20
1819.521654629483
 10
711.1307046321303
 20
1819.105532611836
 10
711.4503123609409
 20
1818.673116134232
 10
711.7553773940325
 20
1818.225174099252
 10
712.046087735039
 20
1817.762424529691
 10
712.3226030088466
 20
1817.28554836212
 10
712.3439674832297
 20
1817.24563216169
  0
LINE
  5
159
330
14E
100
AcDbEntity
  8
P-SANR-FIXT
100
AcDbLine
 10
686.8336214100375
 20
1789.495878730053
 30
0.0
 11
704.0442581669621
 21
1789.495878730053
 31
0.0
  0
LINE
  5
15A
330
14E
100
AcDbEntity
  8
P-SANR-FIXT
100
AcDbLine
 10
704.0442581669619
 20
1822.995878730053
 30
0.0
 11
686.8336214100375
 21
1822.995878730053
 31
0.0
  0
LINE
  5
15B
330
14E
100
AcDbEntity
  8
P-SANR-FIXT
100
AcDbLine
 10
680.0756170446535
 20
1787.745878730053
 30
0.0
 11
685.4001053325319
 21
1787.745878730053
 31
0.0
  0
LINE
  5
15C
330
14E
100
AcDbEntity
  8
P-SANR-FIXT
100
AcDbLine
 10
685.4001053325319
 20
1824.745878730053
 30
0.0
 11
680.0756170446535
 21
1824.745878730053
 31
0.0
  0
LINE
  5
15D
330
14E
100
AcDbEntity
  8
P-SANR-FIXT
100
AcDbLine
 10
672.3324528470503
 20
1793.573455168653
 30
0.0
 11
672.6455999719128
 21
1793.038000651974
 31
0.0
  0
LINE
  5
15E
330
14E
100
AcDbEntity
  8
P-SANR-FIXT
100
AcDbLine
 10
672.6455999719128
 20
1819.453756808131
 30
0.0
 11
672.3324528470503
 21
1818.918302291452
 31
0.0
  0
LINE
  5
15F
330
14E
100
AcDbEntity
  8
P-SANR-FIXT
100
AcDbLine
 10
663.4175160120471
 20
1788.495878730053
 30
0.0
 11
676.9953587065751
 21
1788.495878730053
 31
0.0
  0
LINE
  5
160
330
14E
100
AcDbEntity
  8
P-SANR-FIXT
100
AcDbLine
 10
676.9953587065751
 20
1823.995878730053
 30
0.0
 11
663.4175160120471
 21
1823.995878730053
 31
0.0
  0
LWPOLYLINE
  5
161
330
14E
100
AcDbEntity
  8
P-SANR-FIXT
100
AcDbPolyline
 90
       10
 70
   128
 43
0.0
 10
661.7149681839056
 20
1787.245878730053
 10
662.1974389548735
 20
1787.262702239009
 10
662.6784658943161
 20
1787.313075568794
 10
663.1566488660752
 20
1787.396713832874
 10
663.6306698128018
 20
1787.513163414763
 10
664.09932167044
 20
1787.661830039782
 10
664.5615255857777
 20
1787.84201166435
 10
665.0163363247924
 20
1788.052931767117
 10
665.4629375120394
 20
1788.293769387178
 10
665.7906773689478
 20
1788.495878730053
  0
LWPOLYLINE
  5
162
330
14E
100
AcDbEntity
  8
P-SANR-FIXT
100
AcDbPolyline
 90
       10
 70
   128
 43
0.0
 10
661.7149681839056
 20
1825.245878730053
 10
662.1974389548735
 20
1825.229055221096
 10
662.6784658943161
 20
1825.178681891312
 10
663.1566488660752
 20
1825.095043627231
 10
663.6306698128018
 20
1824.978594045343
 10
664.0993216704398
 20
1824.829927420323
 10
664.5615255857777
 20
1824.649745795755
 10
665.0163363247924
 20
1824.438825692989
 10
665.4629375120394
 20
1824.197988072927
 10
665.7906773689481
 20
1823.995878730053
  0
LINE
  5
163
330
14E
100
AcDbEntity
  8
P-SANR-FIXT
100
AcDbLine
 10
654.4855594874781
 20
1787.245878730053
 30
0.0
 11
661.7149681839056
 21
1787.245878730053
 31
0.0
  0
LINE
  5
164
330
14E
100
AcDbEntity
  8
P-SANR-FIXT
100
AcDbLine
 10
661.7149681839054
 20
1825.245878730053
 30
0.0
 11
654.4855594874781
 21
1825.245878730053
 31
0.0
  0
LINE
  5
165
330
14E
100
AcDbEntity
  8
P-SANR-FIXT
100
AcDbLine
 10
646.4372016426787
 20
1793.39497032977
 30
0.0
 11
646.8547311425012
 21
1792.681030974188
 31
0.0
  0
LINE
  5
166
330
14E
100
AcDbEntity
  8
P-SANR-FIXT
100
AcDbLine
 10
646.8547311425012
 20
1819.810726485917
 30
0.0
 11
646.4372016426787
 21
1819.096787130335
 31
0.0
  0
LWPOLYLINE
  5
167
330
14E
100
AcDbEntity
  8
P-SANR-FIXT
100
AcDbPolyline
 90
       20
 70
   128
 43
0.0
 10
652.0281033546132
 20
1787.745878730052
 10
651.5571010535425
 20
1787.76230229234
 10
651.0875242368921
 20
1787.811476421945
 10
650.6207547230657
 20
1787.893118150801
 10
650.1580923103147
 20
1788.00677705645
 10
649.7007258914634
 20
1788.151863328703
 10
649.2497162654297
 20
1788.327680651776
 10
648.8059907577607
 20
1788.533459486272
 10
648.3703480098958
 20
1788.768387096219
 10
647.9434702353207
 20
1789.031631935403
 10
647.5259399236826
 20
1789.322361368359
 10
647.1182582459779
 20
1789.639752839993
 10
646.720863028041
 20
1789.982999369953
 10
646.3341448803572
 20
1790.351310623433
 10
645.958460733202
 20
1790.743910877524
 10
645.5941445414921
 20
1791.160035070993
 10
645.2415152725095
 20
1791.598923896786
 10
644.9008824901674
 20
1792.059818644793
 10
644.5725499371099
 20
1792.54195627225
 10
644.4444484409605
 20
1792.745878730053
  0
LWPOLYLINE
  5
168
330
14E
100
AcDbEntity
  8
P-SANR-FIXT
100
AcDbPolyline
 90
       20
 70
   128
 43
0.0
 10
652.0281033546132
 20
1824.745878730053
 10
651.5571010535425
 20
1824.729455167766
 10
651.0875242368921
 20
1824.680281038161
 10
650.6207547230657
 20
1824.598639309305
 10
650.1580923103147
 20
1824.484980403655
 10
649.7007258914638
 20
1824.339894131403
 10
649.2497162654297
 20
1824.16407680833
 10
648.8059907577607
 20
1823.958297973834
 10
648.3703480098958
 20
1823.723370363886
 10
647.9434702353207
 20
1823.460125524702
 10
647.5259399236826
 20
1823.169396091747
 10
647.1182582459779
 20
1822.852004620113
 10
646.720863028041
 20
1822.508758090153
 10
646.3341448803572
 20
1822.140446836672
 10
645.958460733202
 20
1821.747846582581
 10
645.5941445414921
 20
1821.331722389113
 10
645.2415152725095
 20
1820.892833563319
 10
644.9008824901674
 20
1820.431938815312
 10
644.5725499371099
 20
1819.949801187856
 10
644.4444484409608
 20
1819.745878730053
  0
LINE
  5
169
330
14E
100
AcDbEntity
  8
P-SANR-FIXT
100
AcDbLine
 10
652.0281033546132
 20
1787.745878730052
 30
0.0
 11
652.0505277618338
 21
1787.745878730052
 31
0.0
  0
LINE
  5
16A
330
14E
100
AcDbEntity
  8
P-SANR-FIXT
100
AcDbLine
 10
652.0505277618338
 20
1824.745878730053
 30
0.0
 11
652.0281033546132
 21
1824.745878730053
 31
0.0
  0
ELLIPSE
  5
16B
330
14E
100
AcDbEntity
  8
P-SANR-FIXT
100
AcDbEllipse
 10
686.8336214100369
 20
1806.245878730052
 30
0.0
 11
0.0
 21
16.74999999999984
 31
0.0
210
0.0
220
0.0
230
1.0
 40
0.5735764363510518
 41
2.119962693579643
 42
3.141592653589788
  0
ELLIPSE
  5
16C
330
14E
100
AcDbEntity
  8
P-SANR-FIXT
100
AcDbEllipse
 10
686.8336214100369
 20
1806.245878730052
 30
0.0
 11
0.0
 21
16.75
 31
0.0
210
0.0
220
0.0
230
1.0
 40
0.5735764363510484
 41
0.0000000000000016
 42
1.021629960010137
  0
ELLIPSE
  5
16D
330
14E
100
AcDbEntity
  8
P-SANR-FIXT
100
AcDbEllipse
 10
685.4001053325312
 20
1806.245878730052
 30
0.0
 11
0.0
 21
18.49999999999981
 31
0.0
210
0.0
220
0.0
230
1.0
 40
0.5735764363510531
 41
2.271050234766827
 42
3.577517856547227
  0
ELLIPSE
  5
16E
330
14E
100
AcDbEntity
  8
P-SANR-FIXT
100
AcDbEllipse
 10
685.4001053325312
 20
1806.245878730052
 30
0.0
 11
0.0
 21
18.50000000000006
 31
0.0
210
0.0
220
0.0
230
1.0
 40
0.5735764363510404
 41
5.847260104222139
 42
7.151045129965714
  0
ELLIPSE
  5
16F
330
14E
100
AcDbEntity
  8
P-SANR-FIXT
100
AcDbEllipse
 10
680.0756170446527
 20
1806.245878730052
 30
0.0
 11
0.0
 21
18.50000000000011
 31
0.0
210
0.0
220
0.0
230
1.0
 40
0.5735764363510448
 41
2.31364448721534
 42
3.141592653589788
  0
ELLIPSE
  5
170
330
14E
100
AcDbEntity
  8
P-SANR-FIXT
100
AcDbEllipse
 10
680.0756170446527
 20
1806.245878730052
 30
0.0
 11
0.0
 21
18.50000000000022
 31
0.0
210
0.0
220
0.0
230
1.0
 40
0.5735764363510464
 41
0.0000000000000016
 42
0.8278351481948183
  0
ELLIPSE
  5
171
330
14E
100
AcDbEntity
  8
P-SANR-FIXT
100
AcDbEllipse
 10
654.4855594874773
 20
1806.245878730052
 30
0.0
 11
0.0
 21
18.99999999999986
 31
0.0
210
0.0
220
0.0
230
1.0
 40
0.5735764363510471
 41
2.289750413735331
 42
3.141592653589788
  0
ELLIPSE
  5
172
330
14E
100
AcDbEntity
  8
P-SANR-FIXT
100
AcDbEllipse
 10
654.4855594874773
 20
1806.245878730052
 30
0.0
 11
0.0000000000001699
 21
19.0
 31
0.0
210
0.0
220
0.0
230
1.0
 40
0.5735764363510462
 41
0.0000000000000052
 42
0.8518422398544418
  0
ELLIPSE
  5
173
330
14E
100
AcDbEntity
  8
P-SANR-FIXT
100
AcDbEllipse
 10
653.6664074431764
 20
1806.245878730052
 30
0.0
 11
0.0
 21
18.49999999999999
 31
0.0
210
0.0
220
0.0
230
1.0
 40
0.5735764363510631
 41
2.313757505394954
 42
2.819927156524975
  0
ELLIPSE
  5
174
330
14E
100
AcDbEntity
  8
P-SANR-FIXT
100
AcDbEllipse
 10
653.6664074431764
 20
1806.245878730052
 30
0.0
 11
0.0
 21
18.50000000000015
 31
0.0
210
0.0
220
0.0
230
1.0
 40
0.5735764363510649
 41
0.3216654970648138
 42
0.8278351481948165
  0
LINE
  5
175
330
14E
100
AcDbEntity
  8
P-SANR-FIXT
100
AcDbLine
 10
644.6662989604418
 20
1792.745690832423
 30
0.0
 11
645.2437577123788
 21
1793.745878730053
 31
0.0
  0
LINE
  5
176
330
14E
100
AcDbEntity
  8
P-SANR-FIXT
100
AcDbLine
 10
645.2437577123788
 20
1818.745878730052
 30
0.0
 11
644.6662989604417
 21
1819.746066627683
 31
0.0
  0
LINE
  5
177
330
14E
100
AcDbEntity
  8
P-SANR-FIXT
100
AcDbLine
 10
645.2437577123788
 20
1793.745878730053
 30
0.0
 11
659.0769606588438
 21
1793.745878730053
 31
0.0
  0
LINE
  5
178
330
14E
100
AcDbEntity
  8
P-SANR-FIXT
100
AcDbLine
 10
661.2558542275351
 20
1793.745878730053
 30
0.0
 11
672.6664074431891
 21
1793.745878730053
 31
0.0
  0
LINE
  5
179
330
14E
100
AcDbEntity
  8
P-SANR-FIXT
100
AcDbLine
 10
672.6664074431891
 20
1818.745878730053
 30
0.0
 11
661.2558542275349
 21
1818.745878730053
 31
0.0
  0
LINE
  5
17A
330
14E
100
AcDbEntity
  8
P-SANR-FIXT
100
AcDbLine
 10
659.0769606588435
 20
1818.745878730053
 30
0.0
 11
645.2437577123788
 21
1818.745878730053
 31
0.0
  0
LINE
  5
17B
330
14E
100
AcDbEntity
  8
P-SANR-FIXT
100
AcDbLine
 10
672.6664074431891
 20
1793.745878730053
 30
0.0
 11
675.6346330003665
 21
1793.745878730053
 31
0.0
  0
LINE
  5
17C
330
14E
100
AcDbEntity
  8
P-SANR-FIXT
100
AcDbLine
 10
675.6346330003665
 20
1818.745878730053
 30
0.0
 11
672.6664074431891
 21
1818.745878730053
 31
0.0
  0
LWPOLYLINE
  5
17D
330
14E
100
AcDbEntity
  8
P-SANR-FIXT
100
AcDbPolyline
 90
       41
 70
   128
 43
0.0
 10
678.63402423066
 20
1796.715444303302
 10
678.6322333203496
 20
1796.625910727493
 10
678.6250381192744
 20
1796.506134648146
 10
678.6130589079282
 20
1796.386742108186
 10
678.5963148504934
 20
1796.26792411021
 10
678.5748327338901
 20
1796.149870737668
 10
678.5486469249226
 20
1796.032770850772
 10
678.5177993152988
 20
1795.916811784361
 10
678.4823392546139
 20
1795.802179048205
 10
678.4423234714003
 20
1795.689056030228
 10
678.3978159823751
 20
1795.577623703127
 10
678.3488879900264
 20
1795.468060334855
 10
678.2956177687045
 20
1795.360541203429
 10
678.2380905393995
 20
1795.255238316522
 10
678.1763983334068
 20
1795.15232013629
 10
678.1106398450956
 20
1795.051951309868
 10
678.0409202740194
 20
1794.954292405966
 10
677.9673511566191
 20
1794.859499657998
 10
677.8900501877892
 20
1794.767724714139
 10
677.8091410325893
 20
1794.679114394721
 10
677.7247531284079
 20
1794.593810457354
 10
677.6370214778905
 20
1794.51194937014
 10
677.5460864329622
 20
1794.433662093356
 10
677.452093470297
 20
1794.359073869944
 10
677.3551929585838
 20
1794.28830402515
 10
677.2555399179709
 20
1794.221465775629
 10
677.1532937720649
 20
1794.158666048323
 10
677.0486180928877
 20
1794.100005309398
 10
676.9416803391966
 20
1794.045577403524
 10
676.8326515885854
 20
1793.995469403738
 10
676.7217062637966
 20
1793.949761472151
 10
676.6090218536829
 20
1793.908526731704
 10
676.4947786292624
 20
1793.871831149185
 10
676.3791593553237
 20
1793.839733429698
 10
676.2623489980409
 20
1793.812284922747
 10
676.1445344290673
 20
1793.789529540088
 10
676.025904126581
 20
1793.771503685478
 10
675.9066478737594
 20
1793.75823619644
 10
675.7869564551672
 20
1793.749748298126
 10
675.6670213515413
 20
1793.746053569363
 10
675.6346330003665
 20
1793.745878730053
  0
LWPOLYLINE
  5
17E
330
14E
100
AcDbEntity
  8
P-SANR-FIXT
100
AcDbPolyline
 90
        6
 70
   128
 43
0.0
 10
678.6346330003667
 20
1796.870734091449
 10
678.6346330003667
 20
1796.827024422232
 10
678.6346330003667
 20
1796.785010706945
 10
678.6346330003667
 20
1796.758132362285
 10
678.6346330003667
 20
1796.746432387868
 10
678.6346330003667
 20
1796.745878730053
  0
LWPOLYLINE
  5
17F
330
14E
100
AcDbEntity
  8
P-SANR-FIXT
100
AcDbPolyline
 90
       35
 70
   128
 43
0.0
 10
678.6346330003667
 20
1796.745878730053
 10
678.6346330003667
 20
1796.753477716774
 10
678.6346330003667
 20
1796.776262520178
 10
678.6346330003667
 20
1796.814196689441
 10
678.6346330003667
 20
1796.867219537985
 10
678.6346330003667
 20
1796.935246240561
 10
678.6346330003667
 20
1797.018167968959
 10
678.6346330003667
 20
1797.115852066101
 10
678.6346330003667
 20
1797.22814225827
 10
678.6346330003667
 20
1797.354858905113
 10
678.6346330003667
 20
1797.495799287026
 10
678.6346330003667
 20
1797.650737929463
 10
678.6346330003667
 20
1797.81942696365
 10
678.6346330003667
 20
1798.001596523115
 10
678.6346330003667
 20
1798.196955175425
 10
678.6346330003667
 20
1798.405190388411
 10
678.6346330003667
 20
1798.625969030152
 10
678.6346330003667
 20
1798.858937901919
 10
678.6346330003667
 20
1799.103724303214
 10
678.6346330003667
 20
1799.359936628015
 10
678.6346330003667
 20
1799.627164991255
 10
678.6346330003667
 20
1799.90498188456
 10
678.6346330003667
 20
1800.192942860167
 10
678.6346330003667
 20
1800.49058724194
 10
678.6346330003667
 20
1800.797438862365
 10
678.6346330003667
 20
1801.113006824305
 10
678.6346330003667
 20
1801.436786286341
 10
678.6346330003667
 20
1801.768259270403
 10
678.6346330003667
 20
1802.106895490424
 10
678.6346330003667
 20
1802.452153200693
 10
678.6346330003667
 20
1802.803480062524
 10
678.6346330003667
 20
1803.160314027884
 10
678.6346330003667
 20
1803.522084238549
 10
678.6346330003667
 20
1803.888211939355
 10
678.6346330003667
 20
1804.245878730052
  0
LWPOLYLINE
  5
180
330
14E
100
AcDbEntity
  8
P-SANR-FIXT
100
AcDbPolyline
 90
       41
 70
   128
 43
0.0
 10
675.6346330003665
 20
1818.745878730053
 10
675.7546010029265
 20
1818.743479050035
 10
675.8743770822741
 20
1818.73628384896
 10
675.9937696222332
 20
1818.724304637614
 10
676.1125876202092
 20
1818.707560580179
 10
676.2306409927518
 20
1818.686078463576
 10
676.347740879648
 20
1818.659892654608
 10
676.4636999460589
 20
1818.629045044985
 10
676.5783326822149
 20
1818.5935849843
 10
676.6914557001918
 20
1818.553569201086
 10
676.8028880272924
 20
1818.509061712061
 10
676.9124513955645
 20
1818.460133719712
 10
677.019970526991
 20
1818.40686349839
 10
677.1252734138977
 20
1818.349336269086
 10
677.2281915941293
 20
1818.287644063093
 10
677.3285604205516
 20
1818.221885574781
 10
677.4262193244537
 20
1818.152166003705
 10
677.5210120724219
 20
1818.078596886305
 10
677.6127870162809
 20
1818.001295917475
 10
677.7013973356982
 20
1817.920386762276
 10
677.7867012730652
 20
1817.835998858094
 10
677.8685623602791
 20
1817.748267207576
 10
677.9468496370635
 20
1817.657332162648
 10
678.0214378604756
 20
1817.563339199983
 10
678.0922077052695
 20
1817.46643868827
 10
678.1590459547904
 20
1817.366785647657
 10
678.2218456820966
 20
1817.264539501751
 10
678.2805064210212
 20
1817.159863822574
 10
678.3349343268961
 20
1817.052926068883
 10
678.3850423266819
 20
1816.943897318272
 10
678.4307502582683
 20
1816.832951993483
 10
678.4719849987151
 20
1816.720267583369
 10
678.5086805812341
 20
1816.606024358948
 10
678.5407783007213
 20
1816.49040508501
 10
678.5682268076724
 20
1816.373594727727
 10
678.5909821903319
 20
1816.255780158753
 10
678.6090080449415
 20
1816.137149856267
 10
678.6222755339796
 20
1816.017893603445
 10
678.6307634322934
 20
1815.898202184853
 10
678.6344581610564
 20
1815.778267081228
 10
678.6346330003667
 20
1815.745878730053
  0
LWPOLYLINE
  5
181
330
14E
100
AcDbEntity
  8
P-SANR-FIXT
100
AcDbPolyline
 90
       35
 70
   128
 43
0.0
 10
678.6346330003667
 20
1808.245878730053
 10
678.6346330003667
 20
1808.61566340145
 10
678.6346330003667
 20
1808.981656922899
 10
678.6346330003667
 20
1809.343273782842
 10
678.6346330003667
 20
1809.699935471442
 10
678.6346330003667
 20
1810.051071406083
 10
678.6346330003667
 20
1810.396119844172
 10
678.6346330003667
 20
1810.734528781818
 10
678.6346330003667
 20
1811.065756836907
 10
678.6346330003667
 20
1811.389274115212
 10
678.6346330003667
 20
1811.704563058099
 10
678.6346330003667
 20
1812.011119270519
 10
678.6346330003667
 20
1812.308452327927
 10
678.6346330003667
 20
1812.596086560857
 10
678.6346330003667
 20
1812.873561815898
 10
678.6346330003667
 20
1813.140434191831
 10
678.6346330003667
 20
1813.396276749786
 10
678.6346330003667
 20
1813.640680196246
 10
678.6346330003667
 20
1813.873253537833
 10
678.6346330003667
 20
1814.093624706815
 10
678.6346330003667
 20
1814.30144115633
 10
678.6346330003667
 20
1814.496370424392
 10
678.6346330003667
 20
1814.678100665753
 10
678.6346330003667
 20
1814.846341150795
 10
678.6346330003667
 20
1815.000822730632
 10
678.6346330003667
 20
1815.14129826769
 10
678.6346330003667
 20
1815.267543031076
 10
678.6346330003667
 20
1815.379355056099
 10
678.6346330003667
 20
1815.476555467372
 10
678.6346330003667
 20
1815.558988764971
 10
678.6346330003667
 20
1815.626523073205
 10
678.6346330003667
 20
1815.679050351587
 10
678.6346330003667
 20
1815.716486567677
 10
678.6346330003667
 20
1815.738771831516
 10
678.6346330003667
 20
1815.745878730053
  0
LWPOLYLINE
  5
182
330
14E
100
AcDbEntity
  8
P-SANR-FIXT
100
AcDbPolyline
 90
        5
 70
   128
 43
0.0
 10
678.6346330003667
 20
1815.745878730053
 10
678.6346330003667
 20
1815.738279743332
 10
678.6346330003667
 20
1815.715494939928
 10
678.6346330003667
 20
1815.677560770664
 10
678.6346330003667
 20
1815.624537922121
  0
LWPOLYLINE
  5
183
330
14E
100
AcDbEntity
  8
P-SANR-FIXT
100
AcDbPolyline
 90
        5
 70
   128
 43
0.0
 10
678.7129189586894
 20
1799.7372047663
 10
678.7080325013637
 20
1799.717379680088
 10
678.6839984036971
 20
1799.59981930304
 10
678.6646846919504
 20
1799.481391854191
 10
678.6547435817439
 20
1799.40008422151
  0
LWPOLYLINE
  5
184
330
14E
100
AcDbEntity
  8
P-SANR-FIXT
100
AcDbPolyline
 90
        3
 70
   128
 43
0.0
 10
678.6387679031048
 20
1799.205115492583
 10
678.6353368079426
 20
1799.122806778742
 10
678.6351337911743
 20
1799.104063088714
  0
LINE
  5
185
330
14E
100
AcDbEntity
  8
P-SANR-FIXT
100
AcDbLine
 10
678.6370326803835
 20
1813.313962291845
 30
0.0
 11
678.6380727716081
 21
1813.29664824492
 31
0.0
  0
LWPOLYLINE
  5
186
330
14E
100
AcDbEntity
  8
P-SANR-FIXT
100
AcDbPolyline
 90
        5
 70
   128
 43
0.0
 10
678.6545134870798
 20
1813.091673238595
 10
678.656207092805
 20
1813.074793672538
 10
678.6729511502398
 20
1812.955975674562
 10
678.6944332668428
 20
1812.83792230202
 10
678.7143005222926
 20
1812.749078250305
  0
LINE
  5
187
330
14E
100
AcDbEntity
  8
P-SANR-FIXT
100
AcDbLine
 10
708.2806242464392
 20
1795.245878730053
 30
0.0
 11
712.6664074431894
 21
1795.245878730053
 31
0.0
  0
LINE
  5
188
330
14E
100
AcDbEntity
  8
P-SANR-FIXT
100
AcDbLine
 10
712.6664074431894
 20
1817.245878730053
 30
0.0
 11
708.2806242464396
 21
1817.245878730053
 31
0.0
  0
LINE
  5
189
330
14E
100
AcDbEntity
  8
P-SANR-FIXT
100
AcDbLine
 10
712.6664074431894
 20
1795.245878730053
 30
0.0
 11
713.8735142243761
 21
1794.038771948866
 31
0.0
  0
LINE
  5
18A
330
14E
100
AcDbEntity
  8
P-SANR-FIXT
100
AcDbLine
 10
713.8735142243761
 20
1818.452985511239
 30
0.0
 11
712.6664074431894
 21
1817.245878730053
 31
0.0
  0
LWPOLYLINE
  5
18B
330
14E
100
AcDbEntity
  8
P-SANR-FIXT
100
AcDbPolyline
 90
       21
 70
   128
 43
0.0
 10
714.5806210055626
 20
1793.745878730053
 10
714.540631671376
 20
1793.746678623392
 10
714.5007063115933
 20
1793.74907702375
 10
714.4609087982736
 20
1793.753070094199
 10
714.4213027989483
 20
1793.758651446677
 10
714.3819516747675
 20
1793.765812152212
 10
714.3429183791354
 20
1793.774540755201
 10
714.3042653569984
 20
1793.784823291742
 10
714.2660544449463
 20
1793.796643311971
 10
714.2283467722875
 20
1793.809981906375
 10
714.1912026632539
 20
1793.82481773605
 10
714.1546815404964
 20
1793.841127066833
 10
714.1188418300211
 20
1793.858883807274
 10
714.0837408677188
 20
1793.878059550375
 10
714.0494348076416
 20
1793.89862361904
 10
714.0159785321675
 20
1793.920543115143
 10
713.9834255642001
 20
1793.943782972169
 10
713.951827981544
 20
1793.968306011302
 10
713.9212363335912
 20
1793.994073000912
 10
713.891699560452
 20
1794.021042719312
 10
713.8735142243761
 20
1794.038771948866
  0
LWPOLYLINE
  5
18C
330
14E
100
AcDbEntity
  8
P-SANR-FIXT
100
AcDbPolyline
 90
       21
 70
   128
 43
0.0
 10
713.8735142243761
 20
1818.452985511239
 10
713.9023565637589
 20
1818.480696630613
 10
713.9322839815597
 20
1818.507232198099
 10
713.9632486002946
 20
1818.53254976245
 10
713.9952008831786
 20
1818.556608820964
 10
714.0280897133757
 20
1818.579370884277
 10
714.0618624757731
 20
1818.600799537947
 10
714.0964651411557
 20
1818.620860500697
 10
714.1318423526402
 20
1818.639521679267
 10
714.1679375142351
 20
1818.656753219752
 10
714.2046928813816
 20
1818.672527555363
 10
714.2420496533331
 20
1818.686819450528
 10
714.2799480672233
 20
1818.699606041264
 10
714.3183274936749
 20
1818.710866871753
 10
714.3571265337926
 20
1818.720583927068
 10
714.3962831173888
 20
1818.728741661994
 10
714.4357346022826
 20
1818.735327025895
 10
714.4754178745143
 20
1818.740329483593
 10
714.5152694493135
 20
1818.743741032225
 10
714.5552255726619
 20
1818.745556214038
 10
714.5806210055626
 20
1818.745878730053
  0
LINE
  5
18D
330
14E
100
AcDbEntity
  8
P-SANR-FIXT
100
AcDbLine
 10
714.5806210055626
 20
1793.745878730053
 30
0.0
 11
720.0890571739998
 21
1793.745878730053
 31
0.0
  0
LINE
  5
18E
330
14E
100
AcDbEntity
  8
P-SANR-FIXT
100
AcDbLine
 10
720.0890571739998
 20
1818.745878730053
 30
0.0
 11
714.5806210055626
 21
1818.745878730053
 31
0.0
  0
LINE
  5
18F
330
14E
100
AcDbEntity
  8
P-SANR-FIXT
100
AcDbLine
 10
720.0890571739998
 20
1793.745878730053
 30
0.0
 11
720.6664074431895
 21
1792.745878730053
 31
0.0
  0
LINE
  5
190
330
14E
100
AcDbEntity
  8
P-SANR-FIXT
100
AcDbLine
 10
720.6288761019371
 20
1819.680872540127
 30
0.0
 11
720.0890571739998
 21
1818.745878730053
 31
0.0
  0
LINE
  5
191
330
14E
100
AcDbEntity
  8
P-SANR-FIXT
100
AcDbLine
 10
632.1664074431883
 20
1800.892476791305
 30
0.0
 11
632.1664074431883
 21
1800.892476791305
 31
0.0
  0
LINE
  5
192
330
14E
100
AcDbEntity
  8
P-SANR-FIXT
100
AcDbLine
 10
632.1664074431883
 20
1811.634724169756
 30
0.0
 11
632.1664074431883
 21
1811.634724169756
 31
0.0
  0
LINE
  5
193
330
14E
100
AcDbEntity
  8
P-SANR-FIXT
100
AcDbLine
 10
678.0596715800782
 20
1808.245878730052
 30
0.0
 11
689.252860904468
 21
1808.245878730052
 31
0.0
  0
LINE
  5
194
330
14E
100
AcDbEntity
  8
P-SANR-FIXT
100
AcDbLine
 10
689.252860904468
 20
1804.245878730052
 30
0.0
 11
678.0596715800782
 21
1804.245878730052
 31
0.0
  0
LINE
  5
195
330
14E
100
AcDbEntity
  8
P-SANR-FIXT
100
AcDbLine
 10
678.0596715800782
 20
1804.245878730052
 30
0.0
 11
678.0596715800782
 21
1808.245878730052
 31
0.0
  0
ARC
  5
196
330
14E
100
AcDbEntity
  8
P-SANR-FIXT
100
AcDbCircle
 10
660.1664074431887
 20
1806.245878730052
 30
0.0
 40
12.5
100
AcDbArc
 50
180.0
 51
0.0
  0
ARC
  5
197
330
14E
100
AcDbEntity
  8
P-SANR-FIXT
100
AcDbCircle
 10
660.1664074431887
 20
1806.245878730052
 30
0.0
 40
12.49999999999994
100
AcDbArc
 50
0.0000000000023472
 51
180.0000000000002
  0
LINE
  5
198
330
14E
100
AcDbEntity
  8
P-SANR-FIXT
100
AcDbLine
 10
733.1664074431887
 20
1806.245878730052
 30
0.0
 11
733.1664074431887
 21
1792.745878730053
 31
0.0
  0
LINE
  5
199
330
14E
100
AcDbEntity
  8
P-SANR-FIXT
100
AcDbLine
 10
733.1664074431887
 20
1798.203938119405
 30
0.0
 11
733.1664074431887
 21
1799.895550013392
 31
0.0
  0
LINE
  5
19A
330
14E
100
AcDbEntity
  8
P-SANR-FIXT
100
AcDbLine
 10
733.1664074431887
 20
1800.892476791822
 30
0.0
 11
733.1664074431887
 21
1800.892476791822
 31
0.0
  0
LINE
  5
19B
330
14E
100
AcDbEntity
  8
P-SANR-FIXT
100
AcDbLine
 10
733.1664074431887
 20
1812.596207446712
 30
0.0
 11
733.1664074431887
 21
1814.365595993767
 31
0.0
  0
LINE
  5
19C
330
14E
100
AcDbEntity
  8
P-SANR-FIXT
100
AcDbLine
 10
733.1664074431887
 20
1819.709299895214
 30
0.0
 11
733.1664074431887
 21
1806.245878730052
 31
0.0
  0
LINE
  5
19D
330
14E
100
AcDbEntity
  8
P-SANR-FIXT
100
AcDbLine
 10
733.1664074431887
 20
1811.634724169844
 30
0.0
 11
733.1664074431887
 21
1811.634724169844
 31
0.0
  0
LINE
  5
19E
330
14E
100
AcDbEntity
  8
P-SANR-FIXT
100
AcDbLine
 10
632.1664074431883
 20
1799.895550013393
 30
0.0
 11
632.1664074431883
 21
1798.203938119405
 31
0.0
  0
LINE
  5
19F
330
14E
100
AcDbEntity
  8
P-SANR-FIXT
100
AcDbLine
 10
632.1664074431883
 20
1792.745878730053
 30
0.0
 11
632.1664074431883
 21
1806.245878730052
 31
0.0
  0
SPLINE
  5
1A0
330
14E
100
AcDbEntity
  8
P-SANR-FIXT
100
AcDbSpline
210
0.0
220
0.0
230
1.0
 70
    24
 71
     3
 72
     9
 73
     5
 74
     0
 42
0.000000001
 43
0.0000000001
 40
-0.5040433972373331
 40
-0.5040433972373331
 40
-0.5040433972373331
 40
-0.5040433972373331
 40
-0.5
 40
0.0
 40
0.0
 40
0.0
 40
0.0
 10
632.1665159259358
 20
1792.745878730053
 30
0.0
 10
632.1664781716568
 20
1792.745878730053
 30
0.0
 10
632.1641249778033
 20
1792.745878730053
 30
0.0
 10
632.4551171453478
 20
1792.745878730075
 30
0.0
 10
633.032432846973
 20
1792.745878730053
 30
0.0
  0
SPLINE
  5
1A1
330
14E
100
AcDbEntity
  8
P-SANR-FIXT
100
AcDbSpline
210
0.0
220
0.0
230
1.0
 70
     8
 71
     3
 72
     8
 73
     4
 74
     0
 42
0.000000001
 43
0.0000000001
 40
-1.0
 40
-1.0
 40
-1.0
 40
-1.0
 40
-0.6475955182392652
 40
-0.6475955182392652
 40
-0.6475955182392652
 40
-0.6475955182392652
 10
633.032432846973
 20
1793.774276429132
 30
0.0
 10
632.6129047606191
 20
1795.143656275958
 30
0.0
 10
632.341220252121
 20
1796.506094222852
 30
0.0
 10
632.2173793214784
 20
1797.861590269812
 30
0.0
  0
SPLINE
  5
1A2
330
14E
100
AcDbEntity
  8
P-SANR-FIXT
100
AcDbSpline
210
0.0
220
0.0
230
1.0
 70
     8
 71
     3
 72
     9
 73
     5
 74
     0
 42
0.000000001
 43
0.0000000001
 40
-0.6247233899137283
 40
-0.6247233899137283
 40
-0.6247233899137283
 40
-0.6247233899137283
 40
-0.5
 40
0.0
 40
0.0
 40
0.0
 40
0.0
 10
632.1951346882772
 20
1798.125430056921
 30
0.0
 10
632.1580968674695
 20
1798.604849821303
 30
0.0
 10
632.0653380313521
 20
1801.001846218184
 30
0.0
 10
632.4371962537012
 20
1803.377026820471
 30
0.0
 10
633.032432846973
 20
1805.264038157917
 30
0.0
  0
LINE
  5
1A3
330
14E
100
AcDbEntity
  8
P-SANR-FIXT
100
AcDbLine
 10
632.1664074431883
 20
1806.245878730052
 30
0.0
 11
632.1664074431883
 21
1819.709299895214
 31
0.0
  0
LINE
  5
1A4
330
14E
100
AcDbEntity
  8
P-SANR-FIXT
100
AcDbLine
 10
632.1664074431883
 20
1814.365595993668
 30
0.0
 11
632.1664074431883
 21
1812.596207446712
 31
0.0
  0
SPLINE
  5
1A5
330
14E
100
AcDbEntity
  8
P-SANR-FIXT
100
AcDbSpline
210
0.0
220
0.0
230
1.0
 70
     8
 71
     3
 72
     9
 73
     5
 74
     0
 42
0.000000001
 43
0.0000000001
 40
-1.0
 40
-1.0
 40
-1.0
 40
-1.0
 40
-0.5
 40
-0.3823826138532382
 40
-0.3823826138532382
 40
-0.3823826138532382
 40
-0.3823826138532382
 10
633.032432846973
 20
1807.227719302188
 30
0.0
 10
632.4371962537013
 20
1809.170628541004
 30
0.0
 10
632.0695677848261
 20
1811.553315834332
 30
0.0
 10
632.1560467839906
 20
1813.91468080411
 30
0.0
 10
632.1889844378406
 20
1814.363599485128
 30
0.0
  0
SPLINE
  5
1A6
330
14E
100
AcDbEntity
  8
P-SANR-FIXT
100
AcDbSpline
210
0.0
220
0.0
230
1.0
 70
     8
 71
     3
 72
     8
 73
     4
 74
     0
 42
0.000000001
 43
0.0000000001
 40
-0.375126614532217
 40
-0.375126614532217
 40
-0.375126614532217
 40
-0.375126614532217
 40
0.0
 40
0.0
 40
0.0
 40
0.0
 10
632.1952683965349
 20
1814.446674129199
 30
0.0
 10
632.306799854001
 20
1815.878142381182
 30
0.0
 10
632.5858546708137
 20
1817.301744681772
 30
0.0
 10
633.032432846973
 20
1818.717481030972
 30
0.0
  0
SPLINE
  5
1A7
330
14E
100
AcDbEntity
  8
P-SANR-FIXT
100
AcDbSpline
210
0.0
220
0.0
230
1.0
 70
    24
 71
     3
 72
     8
 73
     4
 74
     0
 42
0.000000001
 43
0.0000000001
 40
-1.0
 40
-1.0
 40
-1.0
 40
-1.0
 40
-0.5
 40
-0.5
 40
-0.5
 40
-0.5
 10
633.032432846973
 20
1819.745878730052
 30
0.0
 10
632.4551171453358
 20
1819.745878730052
 30
0.0
 10
632.1664592945173
 20
1819.745878730052
 30
0.0
 10
632.1664592945173
 20
1819.745878730052
 30
0.0
  0
LINE
  5
1A8
330
14E
100
AcDbEntity
  8
P-SANR-FIXT
100
AcDbLine
 10
633.032432846973
 20
1792.745878730053
 30
0.0
 11
633.032432846973
 21
1793.774276429132
 31
0.0
  0
LINE
  5
1A9
330
14E
100
AcDbEntity
  8
P-SANR-FIXT
100
AcDbLine
 10
633.032432846973
 20
1792.745878730053
 30
0.0
 11
643.8003820394037
 21
1792.745878730053
 31
0.0
  0
LINE
  5
1AA
330
14E
100
AcDbEntity
  8
P-SANR-FIXT
100
AcDbLine
 10
643.8003820394037
 20
1793.774276429132
 30
0.0
 11
633.032432846973
 21
1793.774276429132
 31
0.0
  0
LINE
  5
1AB
330
14E
100
AcDbEntity
  8
P-SANR-FIXT
100
AcDbLine
 10
633.0324328469728
 20
1805.264038157917
 30
0.0
 11
633.0324328469728
 21
1806.245878730052
 31
0.0
  0
LINE
  5
1AC
330
14E
100
AcDbEntity
  8
P-SANR-FIXT
100
AcDbLine
 10
633.032432846973
 20
1805.264038157917
 30
0.0
 11
643.8003820394037
 21
1805.264038157917
 31
0.0
  0
LINE
  5
1AD
330
14E
100
AcDbEntity
  8
P-SANR-FIXT
100
AcDbLine
 10
633.032432846973
 20
1818.717481030972
 30
0.0
 11
633.032432846973
 21
1819.745878730052
 31
0.0
  0
LINE
  5
1AE
330
14E
100
AcDbEntity
  8
P-SANR-FIXT
100
AcDbLine
 10
633.032432846973
 20
1818.717481030972
 30
0.0
 11
643.8003820394037
 21
1818.717481030972
 31
0.0
  0
LINE
  5
1AF
330
14E
100
AcDbEntity
  8
P-SANR-FIXT
100
AcDbLine
 10
643.8003820394037
 20
1819.745878730052
 30
0.0
 11
633.032432846973
 21
1819.745878730052
 31
0.0
  0
LINE
  5
1B0
330
14E
100
AcDbEntity
  8
P-SANR-FIXT
100
AcDbLine
 10
643.8003820394037
 20
1807.227719302188
 30
0.0
 11
633.032432846973
 21
1807.227719302188
 31
0.0
  0
LINE
  5
1B1
330
14E
100
AcDbEntity
  8
P-SANR-FIXT
100
AcDbLine
 10
633.032432846973
 20
1806.245878730052
 30
0.0
 11
633.032432846973
 21
1807.227719302188
 31
0.0
  0
LINE
  5
1B2
330
14E
100
AcDbEntity
  8
P-SANR-FIXT
100
AcDbLine
 10
643.8003820394039
 20
1805.264038157917
 30
0.0
 11
643.8003820394039
 21
1806.245878730052
 31
0.0
  0
SPLINE
  5
1B3
330
14E
100
AcDbEntity
  8
P-SANR-FIXT
100
AcDbSpline
210
0.0
220
0.0
230
1.0
 70
     8
 71
     3
 72
     9
 73
     5
 74
     0
 42
0.000000001
 43
0.0000000001
 40
-1.0
 40
-1.0
 40
-1.0
 40
-1.0
 40
-0.5
 40
0.0
 40
0.0
 40
0.0
 40
0.0
 10
643.8003820394037
 20
1805.264038157917
 30
0.0
 10
644.3956186326753
 20
1803.377026820471
 30
0.0
 10
644.990855225947
 20
1799.575055194894
 30
0.0
 10
644.3956186326753
 20
1795.717185667947
 30
0.0
 10
643.8003820394037
 20
1793.774276429132
 30
0.0
  0
LINE
  5
1B4
330
14E
100
AcDbEntity
  8
P-SANR-FIXT
100
AcDbLine
 10
643.8003820394037
 20
1792.745878730053
 30
0.0
 11
643.8003820394037
 21
1793.774276429132
 31
0.0
  0
SPLINE
  5
1B5
330
14E
100
AcDbEntity
  8
P-SANR-FIXT
100
AcDbSpline
210
0.0
220
0.0
230
1.0
 70
    24
 71
     3
 72
     9
 73
     5
 74
     0
 42
0.000000001
 43
0.0000000001
 40
-1.0
 40
-1.0
 40
-1.0
 40
-1.0
 40
-0.5
 40
-0.4959566027626546
 40
-0.4959566027626546
 40
-0.4959566027626546
 40
-0.4959566027626546
 10
643.8003820394037
 20
1792.745878730053
 30
0.0
 10
644.377697741041
 20
1792.745878730053
 30
0.0
 10
644.6686899085725
 20
1792.745878730053
 30
0.0
 10
644.6663367147201
 20
1792.745878730053
 30
0.0
 10
644.6662989604411
 20
1792.745878730053
 30
0.0
  0
SPLINE
  5
1B6
330
14E
100
AcDbEntity
  8
P-SANR-FIXT
100
AcDbSpline
210
0.0
220
0.0
230
1.0
 70
    24
 71
     3
 72
     8
 73
     4
 74
     0
 42
0.000000001
 43
0.0000000001
 40
-0.5
 40
-0.5
 40
-0.5
 40
-0.5
 40
0.0
 40
0.0
 40
0.0
 40
0.0
 10
644.6663555918594
 20
1819.745878730052
 30
0.0
 10
644.6663555918594
 20
1819.745878730052
 30
0.0
 10
644.3776977410409
 20
1819.745878730052
 30
0.0
 10
643.8003820394037
 20
1819.745878730052
 30
0.0
  0
LINE
  5
1B7
330
14E
100
AcDbEntity
  8
P-SANR-FIXT
100
AcDbLine
 10
643.8003820394037
 20
1818.717481030972
 30
0.0
 11
643.8003820394037
 21
1819.745878730052
 31
0.0
  0
SPLINE
  5
1B8
330
14E
100
AcDbEntity
  8
P-SANR-FIXT
100
AcDbSpline
210
0.0
220
0.0
230
1.0
 70
     8
 71
     3
 72
     9
 73
     5
 74
     0
 42
0.000000001
 43
0.0000000001
 40
-1.0
 40
-1.0
 40
-1.0
 40
-1.0
 40
-0.5
 40
0.0
 40
0.0
 40
0.0
 40
0.0
 10
643.8003820394037
 20
1818.717481030972
 30
0.0
 10
644.3956186326753
 20
1816.830469693527
 30
0.0
 10
644.9908552259468
 20
1813.02849806795
 30
0.0
 10
644.3956186326753
 20
1809.170628541004
 30
0.0
 10
643.8003820394037
 20
1807.227719302188
 30
0.0
  0
LINE
  5
1B9
330
14E
100
AcDbEntity
  8
P-SANR-FIXT
100
AcDbLine
 10
643.8003820394037
 20
1806.245878730052
 30
0.0
 11
643.8003820394037
 21
1807.227719302188
 31
0.0
  0
LINE
  5
1BA
330
14E
100
AcDbEntity
  8
P-SANR-FIXT
100
AcDbLine
 10
645.243757712378
 20
1793.745878730052
 30
0.0
 11
645.243757712378
 21
1806.245878730052
 31
0.0
  0
SPLINE
  5
1BB
330
14E
100
AcDbEntity
  8
P-SANR-FIXT
100
AcDbSpline
210
0.0
220
0.0
230
1.0
 70
     8
 71
     3
 72
     8
 73
     4
 74
     0
 42
0.000000001
 43
0.0000000001
 40
-1.0
 40
-1.0
 40
-1.0
 40
-1.0
 40
-0.9817726272698108
 40
-0.9817726272698108
 40
-0.9817726272698108
 40
-0.9817726272698108
 10
668.0671566475516
 20
1796.559384936643
 30
0.0
 10
668.1135056032265
 20
1796.59616612639
 30
0.0
 10
668.159568801012
 20
1796.63337339158
 30
0.0
 10
668.205351715635
 20
1796.671006872536
 30
0.0
  0
SPLINE
  5
1BC
330
14E
100
AcDbEntity
  8
P-SANR-FIXT
100
AcDbSpline
210
0.0
220
0.0
230
1.0
 70
     8
 71
     3
 72
     8
 73
     4
 74
     0
 42
0.000000001
 43
0.0000000001
 40
-0.7634446587105117
 40
-0.7634446587105117
 40
-0.7634446587105117
 40
-0.7634446587105117
 40
-0.75
 40
-0.75
 40
-0.75
 40
-0.75
 10
669.739287862066
 20
1798.20702415417
 30
0.0
 10
669.7686844324512
 20
1798.242329076439
 30
0.0
 10
669.7979642195019
 20
1798.277866780638
 30
0.0
 10
669.8271293264931
 20
1798.313637388953
 30
0.0
  0
SPLINE
  5
1BD
330
14E
100
AcDbEntity
  8
P-SANR-FIXT
100
AcDbSpline
210
0.0
220
0.0
230
1.0
 70
     8
 71
     3
 72
     8
 73
     4
 74
     0
 42
0.000000001
 43
0.0000000001
 40
-0.6666666666666668
 40
-0.6666666666666668
 40
-0.6666666666666668
 40
-0.6666666666666668
 40
-0.6587290740446886
 40
-0.6587290740446886
 40
-0.6587290740446886
 40
-0.6587290740446886
 10
670.3550844069084
 20
1799.005552457687
 30
0.0
 10
670.3713545303421
 20
1799.028368816138
 30
0.0
 10
670.3875742029
 20
1799.051265746819
 30
0.0
 10
670.4037424503605
 20
1799.074243176849
 30
0.0
  0
SPLINE
  5
1BE
330
14E
100
AcDbEntity
  8
P-SANR-FIXT
100
AcDbSpline
210
0.0
220
0.0
230
1.0
 70
     8
 71
     3
 72
     9
 73
     5
 74
     0
 42
0.000000001
 43
0.0000000001
 40
-0.5833333333333334
 40
-0.5833333333333334
 40
-0.5833333333333334
 40
-0.5833333333333334
 40
-0.5625
 40
-0.5578120627215522
 40
-0.5578120627215522
 40
-0.5578120627215522
 40
-0.5578120627215522
 10
670.8491562362653
 20
1799.75073983963
 30
0.0
 10
670.8885206213484
 20
1799.815048820595
 30
0.0
 10
670.936063605978
 20
1799.894503830849
 30
0.0
 10
670.9826404164331
 20
1799.974787937831
 30
0.0
 10
670.9911639017352
 20
1799.989563166994
 30
0.0
  0
SPLINE
  5
1BF
330
14E
100
AcDbEntity
  8
P-SANR-FIXT
100
AcDbSpline
210
0.0
220
0.0
230
1.0
 70
     8
 71
     3
 72
     8
 73
     4
 74
     0
 42
0.000000001
 43
0.0000000001
 40
-0.3640182438985987
 40
-0.3640182438985987
 40
-0.3640182438985987
 40
-0.3640182438985987
 40
-0.3333333333333334
 40
-0.3333333333333334
 40
-0.3333333333333334
 40
-0.3333333333333334
 10
671.9101690053475
 20
1801.965708928323
 30
0.0
 10
671.9513763588895
 20
1802.077102372798
 30
0.0
 10
671.9913520940224
 20
1802.18938415812
 30
0.0
 10
672.0294832771236
 20
1802.302614508222
 30
0.0
  0
SPLINE
  5
1C0
330
14E
100
AcDbEntity
  8
P-SANR-FIXT
100
AcDbSpline
210
0.0
220
0.0
230
1.0
 70
     8
 71
     3
 72
     8
 73
     4
 74
     0
 42
0.000000001
 43
0.0000000001
 40
-0.2706270625044569
 40
-0.2706270625044569
 40
-0.2706270625044569
 40
-0.2706270625044569
 40
-0.25
 40
-0.25
 40
-0.25
 40
-0.25
 10
672.2406636231949
 20
1803.007359941153
 30
0.0
 10
672.2613992582466
 20
1803.085709762525
 30
0.0
 10
672.281008752919
 20
1803.164521149076
 30
0.0
 10
672.3004645841464
 20
1803.243436840527
 30
0.0
  0
SPLINE
  5
1C1
330
14E
100
AcDbEntity
  8
P-SANR-FIXT
100
AcDbSpline
210
0.0
220
0.0
230
1.0
 70
     8
 71
     3
 72
     8
 73
     4
 74
     0
 42
0.000000001
 43
0.0000000001
 40
-0.1787163718549403
 40
-0.1787163718549403
 40
-0.1787163718549403
 40
-0.1787163718549403
 40
-0.1666666666666666
 40
-0.1666666666666666
 40
-0.1666666666666666
 40
-0.1666666666666666
 10
672.4708314466347
 20
1804.074414101006
 30
0.0
 10
672.4788882682697
 20
1804.121869190531
 30
0.0
 10
672.4869203033374
 20
1804.169351509346
 30
0.0
 10
672.4947756873817
 20
1804.216910259422
 30
0.0
  0
SPLINE
  5
1C2
330
14E
100
AcDbEntity
  8
P-SANR-FIXT
100
AcDbSpline
210
0.0
220
0.0
230
1.0
 70
     8
 71
     3
 72
     8
 73
     4
 74
     0
 42
0.000000001
 43
0.0000000001
 40
-0.0885355933371877
 40
-0.0885355933371877
 40
-0.0885355933371877
 40
-0.0885355933371877
 40
-0.0833333333333333
 40
-0.0833333333333333
 40
-0.0833333333333333
 40
-0.0833333333333333
 10
672.6100362785302
 20
1805.156375351852
 30
0.0
 10
672.6119239947657
 20
1805.177477180757
 30
0.0
 10
672.6136789405533
 20
1805.198619064572
 30
0.0
 10
672.6153164037168
 20
1805.219796402898
 30
0.0
  0
SPLINE
  5
1C3
330
14E
100
AcDbEntity
  8
P-SANR-FIXT
100
AcDbSpline
210
0.0
220
0.0
230
1.0
 70
     8
 71
     3
 72
     8
 73
     4
 74
     0
 42
0.000000001
 43
0.0000000001
 40
-0.9166666666666666
 40
-0.9166666666666666
 40
-0.9166666666666666
 40
-0.9166666666666666
 40
-0.9114644066628192
 40
-0.9114644066628192
 40
-0.9114644066628192
 40
-0.9114644066628192
 10
647.7173532710217
 20
1805.219702876597
 30
0.0
 10
647.7191497275951
 20
1805.198570123073
 30
0.0
 10
647.720991422614
 20
1805.177452746342
 30
0.0
 10
647.7228782410627
 20
1805.156351062557
 30
0.0
  0
SPLINE
  5
1C4
330
14E
100
AcDbEntity
  8
P-SANR-FIXT
100
AcDbSpline
210
0.0
220
0.0
230
1.0
 70
     8
 71
     3
 72
     8
 73
     4
 74
     0
 42
0.000000001
 43
0.0000000001
 40
-0.8333333333333333
 40
-0.8333333333333333
 40
-0.8333333333333333
 40
-0.8333333333333333
 40
-0.821283628145067
 40
-0.821283628145067
 40
-0.821283628145067
 40
-0.821283628145067
 10
647.8382717712718
 20
1804.217160470033
 30
0.0
 10
647.8457926016601
 20
1804.169508021325
 30
0.0
 10
647.8535679812803
 20
1804.121956875992
 30
0.0
 10
647.8616024962109
 20
1804.074508258684
 30
0.0
  0
SPLINE
  5
1C5
330
14E
100
AcDbEntity
  8
P-SANR-FIXT
100
AcDbSpline
210
0.0
220
0.0
230
1.0
 70
     8
 71
     3
 72
     8
 73
     4
 74
     0
 42
0.000000001
 43
0.0000000001
 40
-0.75
 40
-0.75
 40
-0.75
 40
-0.75
 40
-0.7293729374955545
 40
-0.7293729374955545
 40
-0.7293729374955545
 40
-0.7293729374955545
 10
648.0323503022312
 20
1803.243436840527
 30
0.0
 10
648.0516335609544
 20
1803.164369230112
 30
0.0
 10
648.0717547851806
 20
1803.085621797844
 30
0.0
 10
648.0926789341025
 20
1803.007218033318
 30
0.0
  0
SPLINE
  5
1C6
330
14E
100
AcDbEntity
  8
P-SANR-FIXT
100
AcDbSpline
210
0.0
220
0.0
230
1.0
 70
     8
 71
     3
 72
     8
 73
     4
 74
     0
 42
0.000000001
 43
0.0000000001
 40
-0.6666666666666668
 40
-0.6666666666666668
 40
-0.6666666666666668
 40
-0.6666666666666668
 40
-0.6359817561014079
 40
-0.6359817561014079
 40
-0.6359817561014079
 40
-0.6359817561014079
 10
648.3048494598754
 20
1802.302440515718
 30
0.0
 10
648.3427567429802
 20
1802.189238005162
 30
0.0
 10
648.382185852141
 20
1802.076929865441
 30
0.0
 10
648.4230377555275
 20
1801.965616178833
 30
0.0
  0
SPLINE
  5
1C7
330
14E
100
AcDbEntity
  8
P-SANR-FIXT
100
AcDbSpline
210
0.0
220
0.0
230
1.0
 70
     8
 71
     3
 72
     9
 73
     5
 74
     0
 42
0.000000001
 43
0.0000000001
 40
-0.4421879372784613
 40
-0.4421879372784613
 40
-0.4421879372784613
 40
-0.4421879372784613
 40
-0.4375
 40
-0.4166666666666668
 40
-0.4166666666666668
 40
-0.4166666666666668
 40
-0.4166666666666668
 10
649.3416768518518
 20
1799.989558488289
 30
0.0
 10
649.3501910471933
 20
1799.9747849853
 30
0.0
 10
649.3967029863037
 20
1799.894481158163
 30
0.0
 10
649.4443961150936
 20
1799.815308647509
 30
0.0
 10
649.4838914185801
 20
1799.7512213512
 30
0.0
  0
SPLINE
  5
1C8
330
14E
100
AcDbEntity
  8
P-SANR-FIXT
100
AcDbSpline
210
0.0
220
0.0
230
1.0
 70
     8
 71
     3
 72
     8
 73
     4
 74
     0
 42
0.000000001
 43
0.0000000001
 40
-0.341270925955321
 40
-0.341270925955321
 40
-0.341270925955321
 40
-0.341270925955321
 40
-0.3333333333333334
 40
-0.3333333333333334
 40
-0.3333333333333334
 40
-0.3333333333333334
 10
649.9291092405711
 20
1799.074237499741
 30
0.0
 10
649.9452787334501
 20
1799.051259923552
 30
0.0
 10
649.961453780219
 20
1799.028283819067
 30
0.0
 10
649.9776452967485
 20
1799.005329868707
 30
0.0
  0
SPLINE
  5
1C9
330
14E
100
AcDbEntity
  8
P-SANR-FIXT
100
AcDbSpline
210
0.0
220
0.0
230
1.0
 70
     8
 71
     3
 72
     8
 73
     4
 74
     0
 42
0.000000001
 43
0.0000000001
 40
-0.25
 40
-0.25
 40
-0.25
 40
-0.25
 40
-0.2365553412894994
 40
-0.2365553412894994
 40
-0.2365553412894994
 40
-0.2365553412894994
 10
650.5056855598843
 20
1798.313637388953
 30
0.0
 10
650.5348479690277
 20
1798.277867218084
 30
0.0
 10
650.5643830482497
 20
1798.242769475486
 30
0.0
 10
650.5942513851383
 20
1798.208273183131
 30
0.0
  0
SPLINE
  5
1CA
330
14E
100
AcDbEntity
  8
P-SANR-FIXT
100
AcDbSpline
210
0.0
220
0.0
230
1.0
 70
     8
 71
     3
 72
     8
 73
     4
 74
     0
 42
0.000000001
 43
0.0000000001
 40
-0.0182273727302123
 40
-0.0182273727302123
 40
-0.0182273727302123
 40
-0.0182273727302123
 40
0.0
 40
0.0
 40
0.0
 40
0.0
 10
652.1274624204645
 20
1796.67100698676
 30
0.0
 10
652.1732458156046
 20
1796.633373432649
 30
0.0
 10
652.2193092831511
 20
1796.59616612639
 30
0.0
 10
652.2656582388257
 20
1796.559384936643
 30
0.0
  0
LINE
  5
1CB
330
14E
100
AcDbEntity
  8
P-SANR-FIXT
100
AcDbLine
 10
645.243757712378
 20
1806.245878730052
 30
0.0
 11
645.243757712378
 21
1818.745878730052
 31
0.0
  0
SPLINE
  5
1CC
330
14E
100
AcDbEntity
  8
P-SANR-FIXT
100
AcDbSpline
210
0.0
220
0.0
230
1.0
 70
     8
 71
     3
 72
     8
 73
     4
 74
     0
 42
0.000000001
 43
0.0000000001
 40
-1.0
 40
-1.0
 40
-1.0
 40
-1.0
 40
-0.9817726272697825
 40
-0.9817726272697825
 40
-0.9817726272697825
 40
-0.9817726272697825
 10
652.2656582388258
 20
1815.932372523461
 30
0.0
 10
652.2193092831511
 20
1815.895591333714
 30
0.0
 10
652.1732460853653
 20
1815.858384068524
 30
0.0
 10
652.1274631707423
 20
1815.820750587569
 30
0.0
  0
SPLINE
  5
1CD
330
14E
100
AcDbEntity
  8
P-SANR-FIXT
100
AcDbSpline
210
0.0
220
0.0
230
1.0
 70
     8
 71
     3
 72
     8
 73
     4
 74
     0
 42
0.000000001
 43
0.0000000001
 40
-0.7634446587104942
 40
-0.7634446587104942
 40
-0.7634446587104942
 40
-0.7634446587104942
 40
-0.75
 40
-0.75
 40
-0.75
 40
-0.75
 10
650.5935270243115
 20
1814.284733305934
 30
0.0
 10
650.5641304539262
 20
1814.249428383666
 30
0.0
 10
650.5348506668756
 20
1814.213890679466
 30
0.0
 10
650.5056855598844
 20
1814.178120071152
 30
0.0
  0
SPLINE
  5
1CE
330
14E
100
AcDbEntity
  8
P-SANR-FIXT
100
AcDbSpline
210
0.0
220
0.0
230
1.0
 70
     8
 71
     3
 72
     8
 73
     4
 74
     0
 42
0.000000001
 43
0.0000000001
 40
-0.6666666666666668
 40
-0.6666666666666668
 40
-0.6666666666666668
 40
-0.6666666666666668
 40
-0.6587290740446697
 40
-0.6587290740446697
 40
-0.6587290740446697
 40
-0.6587290740446697
 10
649.9777304794691
 20
1813.486205002417
 30
0.0
 10
649.9614603560353
 20
1813.463388643966
 30
0.0
 10
649.9452406834774
 20
1813.440491713285
 30
0.0
 10
649.9290724360169
 20
1813.417514283256
 30
0.0
  0
SPLINE
  5
1CF
330
14E
100
AcDbEntity
  8
P-SANR-FIXT
100
AcDbSpline
210
0.0
220
0.0
230
1.0
 70
     8
 71
     3
 72
     9
 73
     5
 74
     0
 42
0.000000001
 43
0.0000000001
 40
-0.5833333333333334
 40
-0.5833333333333334
 40
-0.5833333333333334
 40
-0.5833333333333334
 40
-0.5625
 40
-0.55781206272153
 40
-0.55781206272153
 40
-0.55781206272153
 40
-0.55781206272153
 10
649.4836586501122
 20
1812.741017620474
 30
0.0
 10
649.4442942650293
 20
1812.67670863951
 30
0.0
 10
649.3967512803997
 20
1812.597253629256
 30
0.0
 10
649.3501744699443
 20
1812.516969522273
 30
0.0
 10
649.3416509846422
 20
1812.50219429311
 30
0.0
  0
SPLINE
  5
1D0
330
14E
100
AcDbEntity
  8
P-SANR-FIXT
100
AcDbSpline
210
0.0
220
0.0
230
1.0
 70
     8
 71
     3
 72
     8
 73
     4
 74
     0
 42
0.000000001
 43
0.0000000001
 40
-0.3640182438985791
 40
-0.3640182438985791
 40
-0.3640182438985791
 40
-0.3640182438985791
 40
-0.3333333333333373
 40
-0.3333333333333373
 40
-0.3333333333333373
 40
-0.3333333333333373
 10
648.42264588103
 20
1810.526048531781
 30
0.0
 10
648.3814385274881
 20
1810.414655087306
 30
0.0
 10
648.3414627923552
 20
1810.302373301985
 30
0.0
 10
648.3033316092539
 20
1810.189142951882
 30
0.0
  0
SPLINE
  5
1D1
330
14E
100
AcDbEntity
  8
P-SANR-FIXT
100
AcDbSpline
210
0.0
220
0.0
230
1.0
 70
     8
 71
     3
 72
     8
 73
     4
 74
     0
 42
0.000000001
 43
0.0000000001
 40
-0.2706270625044381
 40
-0.2706270625044381
 40
-0.2706270625044381
 40
-0.2706270625044381
 40
-0.25
 40
-0.25
 40
-0.25
 40
-0.25
 10
648.0921512631826
 20
1809.484397518952
 30
0.0
 10
648.0714156281309
 20
1809.40604769758
 30
0.0
 10
648.0518061334585
 20
1809.327236311029
 30
0.0
 10
648.0323503022312
 20
1809.248320619578
 30
0.0
  0
SPLINE
  5
1D2
330
14E
100
AcDbEntity
  8
P-SANR-FIXT
100
AcDbSpline
210
0.0
220
0.0
230
1.0
 70
     8
 71
     3
 72
     8
 73
     4
 74
     0
 42
0.000000001
 43
0.0000000001
 40
-0.1787163718549257
 40
-0.1787163718549257
 40
-0.1787163718549257
 40
-0.1787163718549257
 40
-0.1666666666666666
 40
-0.1666666666666666
 40
-0.1666666666666666
 40
-0.1666666666666666
 10
647.8619834397427
 20
1808.417343359098
 30
0.0
 10
647.8539266181078
 20
1808.369888269574
 30
0.0
 10
647.8458945830401
 20
1808.322405950758
 30
0.0
 10
647.8380391989959
 20
1808.274847200683
 30
0.0
  0
SPLINE
  5
1D3
330
14E
100
AcDbEntity
  8
P-SANR-FIXT
100
AcDbSpline
210
0.0
220
0.0
230
1.0
 70
     8
 71
     3
 72
     8
 73
     4
 74
     0
 42
0.000000001
 43
0.0000000001
 40
-0.0885355933371703
 40
-0.0885355933371703
 40
-0.0885355933371703
 40
-0.0885355933371703
 40
-0.0833333333333333
 40
-0.0833333333333333
 40
-0.0833333333333333
 40
-0.0833333333333333
 10
647.7227786078473
 20
1807.335382108252
 30
0.0
 10
647.7208908916117
 20
1807.314280279348
 30
0.0
 10
647.7191359458243
 20
1807.293138395533
 30
0.0
 10
647.7174984826606
 20
1807.271961057206
 30
0.0
  0
SPLINE
  5
1D4
330
14E
100
AcDbEntity
  8
P-SANR-FIXT
100
AcDbSpline
210
0.0
220
0.0
230
1.0
 70
     8
 71
     3
 72
     8
 73
     4
 74
     0
 42
0.000000001
 43
0.0000000001
 40
-0.9166666666666666
 40
-0.9166666666666666
 40
-0.9166666666666666
 40
-0.9166666666666666
 40
-0.9114644066628084
 40
-0.9114644066628084
 40
-0.9114644066628084
 40
-0.9114644066628084
 10
672.6154616153557
 20
1807.272054583508
 30
0.0
 10
672.6136651587824
 20
1807.293187337031
 30
0.0
 10
672.6118234637635
 20
1807.314304713762
 30
0.0
 10
672.6099366453148
 20
1807.335406397548
 30
0.0
  0
SPLINE
  5
1D5
330
14E
100
AcDbEntity
  8
P-SANR-FIXT
100
AcDbSpline
210
0.0
220
0.0
230
1.0
 70
     8
 71
     3
 72
     8
 73
     4
 74
     0
 42
0.000000001
 43
0.0000000001
 40
-0.8333333333333333
 40
-0.8333333333333333
 40
-0.8333333333333333
 40
-0.8333333333333333
 40
-0.8212836281450456
 40
-0.8212836281450456
 40
-0.8212836281450456
 40
-0.8212836281450456
 10
672.4945431151057
 20
1808.274596990071
 30
0.0
 10
672.4870222847174
 20
1808.322249438779
 30
0.0
 10
672.4792469050973
 20
1808.369800584112
 30
0.0
 10
672.4712123901666
 20
1808.417249201421
 30
0.0
  0
SPLINE
  5
1D6
330
14E
100
AcDbEntity
  8
P-SANR-FIXT
100
AcDbSpline
210
0.0
220
0.0
230
1.0
 70
     8
 71
     3
 72
     8
 73
     4
 74
     0
 42
0.000000001
 43
0.0000000001
 40
-0.75
 40
-0.75
 40
-0.75
 40
-0.75
 40
-0.729372937495532
 40
-0.729372937495532
 40
-0.729372937495532
 40
-0.729372937495532
 10
672.3004645841463
 20
1809.248320619578
 30
0.0
 10
672.2811813254232
 20
1809.327388229993
 30
0.0
 10
672.2610601011966
 20
1809.40613566226
 30
0.0
 10
672.2401359522749
 20
1809.484539426787
 30
0.0
  0
SPLINE
  5
1D7
330
14E
100
AcDbEntity
  8
P-SANR-FIXT
100
AcDbSpline
210
0.0
220
0.0
230
1.0
 70
     8
 71
     3
 72
     8
 73
     4
 74
     0
 42
0.000000001
 43
0.0000000001
 40
-0.6666666666666668
 40
-0.6666666666666668
 40
-0.6666666666666668
 40
-0.6666666666666668
 40
-0.6359817561013922
 40
-0.6359817561013922
 40
-0.6359817561013922
 40
-0.6359817561013922
 10
672.027965426502
 20
1810.189316944386
 30
0.0
 10
671.9900581433972
 20
1810.302519454943
 30
0.0
 10
671.9506290342365
 20
1810.414827594664
 30
0.0
 10
671.90977713085
 20
1810.526141281272
 30
0.0
  0
SPLINE
  5
1D8
330
14E
100
AcDbEntity
  8
P-SANR-FIXT
100
AcDbSpline
210
0.0
220
0.0
230
1.0
 70
     8
 71
     3
 72
     9
 73
     5
 74
     0
 42
0.000000001
 43
0.0000000001
 40
-0.4421879372784348
 40
-0.4421879372784348
 40
-0.4421879372784348
 40
-0.4421879372784348
 40
-0.4375
 40
-0.4166666666666668
 40
-0.4166666666666668
 40
-0.4166666666666668
 40
-0.4166666666666668
 10
670.9911380345256
 20
1812.502198971816
 30
0.0
 10
670.9826238391841
 20
1812.516972474805
 30
0.0
 10
670.9361119000736
 20
1812.597276301941
 30
0.0
 10
670.8884187712836
 20
1812.676448812595
 30
0.0
 10
670.8489234677974
 20
1812.740536108904
 30
0.0
  0
SPLINE
  5
1D9
330
14E
100
AcDbEntity
  8
P-SANR-FIXT
100
AcDbSpline
210
0.0
220
0.0
230
1.0
 70
     8
 71
     3
 72
     8
 73
     4
 74
     0
 42
0.000000001
 43
0.0000000001
 40
-0.3412709259552973
 40
-0.3412709259552973
 40
-0.3412709259552973
 40
-0.3412709259552973
 40
-0.3333333333333334
 40
-0.3333333333333334
 40
-0.3333333333333334
 40
-0.3333333333333334
 10
670.4037056458062
 20
1813.417519960364
 30
0.0
 10
670.3875361529274
 20
1813.440497536552
 30
0.0
 10
670.3713611061584
 20
1813.463473641038
 30
0.0
 10
670.3551695896289
 20
1813.486427591397
 30
0.0
  0
SPLINE
  5
1DA
330
14E
100
AcDbEntity
  8
P-SANR-FIXT
100
AcDbSpline
210
0.0
220
0.0
230
1.0
 70
     8
 71
     3
 72
     8
 73
     4
 74
     0
 42
0.000000001
 43
0.0000000001
 40
-0.25
 40
-0.25
 40
-0.25
 40
-0.25
 40
-0.2365553412894771
 40
-0.2365553412894771
 40
-0.2365553412894771
 40
-0.2365553412894771
 10
669.827129326493
 20
1814.178120071152
 30
0.0
 10
669.7979669173498
 20
1814.213890242021
 30
0.0
 10
669.7684318381276
 20
1814.248987984618
 30
0.0
 10
669.7385635012389
 20
1814.283484276973
 30
0.0
  0
SPLINE
  5
1DB
330
14E
100
AcDbEntity
  8
P-SANR-FIXT
100
AcDbSpline
210
0.0
220
0.0
230
1.0
 70
     8
 71
     3
 72
     8
 73
     4
 74
     0
 42
0.000000001
 43
0.0000000001
 40
-0.0182273727301662
 40
-0.0182273727301662
 40
-0.0182273727301662
 40
-0.0182273727301662
 40
0.0
 40
0.0
 40
0.0
 40
0.0
 10
668.2053524659125
 20
1815.820750473344
 30
0.0
 10
668.1595690707727
 20
1815.858384027455
 30
0.0
 10
668.1135056032263
 20
1815.895591333714
 30
0.0
 10
668.0671566475516
 20
1815.932372523461
 30
0.0
  0
LINE
  5
1DC
330
14E
100
AcDbEntity
  8
P-SANR-FIXT
100
AcDbLine
 10
712.6664074431886
 20
1795.245878730053
 30
0.0
 11
712.6664074431886
 21
1806.245878730052
 31
0.0
  0
LINE
  5
1DD
330
14E
100
AcDbEntity
  8
P-SANR-FIXT
100
AcDbLine
 10
712.6664074431886
 20
1806.245878730052
 30
0.0
 11
712.6664074431886
 21
1817.245878730052
 31
0.0
  0
LINE
  5
1DE
330
14E
100
AcDbEntity
  8
P-SANR-FIXT
100
AcDbLine
 10
720.089057173999
 20
1793.745878730052
 30
0.0
 11
720.089057173999
 21
1806.245878730052
 31
0.0
  0
LINE
  5
1DF
330
14E
100
AcDbEntity
  8
P-SANR-FIXT
100
AcDbLine
 10
720.089057173999
 20
1806.245878730052
 30
0.0
 11
720.089057173999
 21
1818.745878730052
 31
0.0
  0
SPLINE
  5
1E0
330
14E
100
AcDbEntity
  8
P-SANR-FIXT
100
AcDbSpline
210
0.0
220
0.0
230
1.0
 70
    24
 71
     3
 72
     9
 73
     5
 74
     0
 42
0.000000001
 43
0.0000000001
 40
-0.5040433972373377
 40
-0.5040433972373377
 40
-0.5040433972373377
 40
-0.5040433972373377
 40
-0.5
 40
0.0
 40
0.0
 40
0.0
 40
0.0
 10
720.6665159259357
 20
1792.745878730053
 30
0.0
 10
720.6664781716567
 20
1792.745878730053
 30
0.0
 10
720.6641249778042
 20
1792.745878730053
 30
0.0
 10
720.9551171453234
 20
1792.745878730075
 30
0.0
 10
721.5324328469732
 20
1792.745878730053
 30
0.0
  0
SPLINE
  5
1E1
330
14E
100
AcDbEntity
  8
P-SANR-FIXT
100
AcDbSpline
210
0.0
220
0.0
230
1.0
 70
     8
 71
     3
 72
     8
 73
     4
 74
     0
 42
0.000000001
 43
0.0000000001
 40
-1.0
 40
-1.0
 40
-1.0
 40
-1.0
 40
-0.5754751838633922
 40
-0.5754751838633922
 40
-0.5754751838633922
 40
-0.5754751838633922
 10
721.5324328469732
 20
1793.774276429132
 30
0.0
 10
721.0270474363404
 20
1795.423902803889
 30
0.0
 10
720.7362106742346
 20
1797.063455185102
 30
0.0
 10
720.6599225606557
 20
1798.692933572773
 30
0.0
  0
SPLINE
  5
1E2
330
14E
100
AcDbEntity
  8
P-SANR-FIXT
100
AcDbSpline
210
0.0
220
0.0
230
1.0
 70
     8
 71
     3
 72
     8
 73
     4
 74
     0
 42
0.000000001
 43
0.0000000001
 40
-0.5620018489955432
 40
-0.5620018489955432
 40
-0.5620018489955432
 40
-0.5620018489955432
 40
-0.5
 40
-0.5
 40
-0.5
 40
-0.5
 10
720.6533073127039
 20
1798.848049594801
 30
0.0
 10
720.6441544089452
 20
1799.085941520734
 30
0.0
 10
720.635506394056
 20
1799.323809739935
 30
0.0
 10
720.6395779570657
 20
1799.561080719551
 30
0.0
  0
SPLINE
  5
1E3
330
14E
100
AcDbEntity
  8
P-SANR-FIXT
100
AcDbSpline
210
0.0
220
0.0
230
1.0
 70
     8
 71
     3
 72
     8
 73
     4
 74
     0
 42
0.000000001
 43
0.0000000001
 40
-0.470126542128592
 40
-0.470126542128592
 40
-0.470126542128592
 40
-0.470126542128592
 40
0.0
 40
0.0
 40
0.0
 40
0.0
 10
720.6427651757563
 20
1799.904169978709
 30
0.0
 10
720.6762039138811
 20
1801.703147201452
 30
0.0
 10
720.9727598042868
 20
1803.489769927855
 30
0.0
 10
721.5324328469732
 20
1805.264038157917
 30
0.0
  0
SPLINE
  5
1E4
330
14E
100
AcDbEntity
  8
P-SANR-FIXT
100
AcDbSpline
210
0.0
220
0.0
230
1.0
 70
     8
 71
     3
 72
     8
 73
     4
 74
     0
 42
0.000000001
 43
0.0000000001
 40
-1.0
 40
-1.0
 40
-1.0
 40
-1.0
 40
-0.5374681294431271
 40
-0.5374681294431271
 40
-0.5374681294431271
 40
-0.5374681294431271
 10
721.5324328469732
 20
1807.227719302188
 30
0.0
 10
720.9818010571535
 20
1809.025034191291
 30
0.0
 10
720.6858540190673
 20
1810.810390521988
 30
0.0
 10
720.6445917327142
 20
1812.583788294278
 30
0.0
  0
SPLINE
  5
1E5
330
14E
100
AcDbEntity
  8
P-SANR-FIXT
100
AcDbSpline
210
0.0
220
0.0
230
1.0
 70
     8
 71
     3
 72
     8
 73
     4
 74
     0
 42
0.000000001
 43
0.0000000001
 40
-0.5177458411817683
 40
-0.5177458411817683
 40
-0.5177458411817683
 40
-0.5177458411817683
 40
-0.5
 40
-0.5
 40
-0.5
 40
-0.5
 10
720.640702650225
 20
1812.810575296509
 30
0.0
 10
720.6399528547856
 20
1812.878575664957
 30
0.0
 10
720.6392159090395
 20
1812.946575430054
 30
0.0
 10
720.6395779570658
 20
1813.014523592607
 30
0.0
  0
SPLINE
  5
1E6
330
14E
100
AcDbEntity
  8
P-SANR-FIXT
100
AcDbSpline
210
0.0
220
0.0
230
1.0
 70
     8
 71
     3
 72
     8
 73
     4
 74
     0
 42
0.000000001
 43
0.0000000001
 40
-0.4319066315005879
 40
-0.4319066315005879
 40
-0.4319066315005879
 40
-0.4319066315005879
 40
0.0
 40
0.0
 40
0.0
 40
0.0
 10
720.6561375825434
 20
1813.796122625432
 30
0.0
 10
720.726161161605
 20
1815.447002808406
 30
0.0
 10
721.0182595830814
 20
1817.087455610253
 30
0.0
 10
721.5324328469732
 20
1818.717481030972
 30
0.0
  0
SPLINE
  5
1E7
330
14E
100
AcDbEntity
  8
P-SANR-FIXT
100
AcDbSpline
210
0.0
220
0.0
230
1.0
 70
    24
 71
     3
 72
     8
 73
     4
 74
     0
 42
0.000000001
 43
0.0000000001
 40
-1.0
 40
-1.0
 40
-1.0
 40
-1.0
 40
-0.5
 40
-0.5
 40
-0.5
 40
-0.5
 10
721.5324328469732
 20
1819.745878730052
 30
0.0
 10
720.9551171453358
 20
1819.745878730052
 30
0.0
 10
720.6664592945173
 20
1819.745878730052
 30
0.0
 10
720.6664592945173
 20
1819.745878730052
 30
0.0
  0
LINE
  5
1E8
330
14E
100
AcDbEntity
  8
P-SANR-FIXT
100
AcDbLine
 10
721.5324328469732
 20
1805.264038157917
 30
0.0
 11
721.5324328469732
 21
1806.245878730052
 31
0.0
  0
LINE
  5
1E9
330
14E
100
AcDbEntity
  8
P-SANR-FIXT
100
AcDbLine
 10
721.5324328469732
 20
1805.264038157917
 30
0.0
 11
732.3003820394041
 21
1805.264038157917
 31
0.0
  0
LINE
  5
1EA
330
14E
100
AcDbEntity
  8
P-SANR-FIXT
100
AcDbLine
 10
721.5324328469732
 20
1792.745878730052
 30
0.0
 11
721.5324328469732
 21
1793.774276429132
 31
0.0
  0
LINE
  5
1EB
330
14E
100
AcDbEntity
  8
P-SANR-FIXT
100
AcDbLine
 10
721.5324328469732
 20
1792.745878730053
 30
0.0
 11
732.3003820394041
 21
1792.745878730053
 31
0.0
  0
LINE
  5
1EC
330
14E
100
AcDbEntity
  8
P-SANR-FIXT
100
AcDbLine
 10
732.3003820394041
 20
1793.774276429132
 30
0.0
 11
721.5324328469732
 21
1793.774276429132
 31
0.0
  0
LINE
  5
1ED
330
14E
100
AcDbEntity
  8
P-SANR-FIXT
100
AcDbLine
 10
732.3003820394041
 20
1807.227719302188
 30
0.0
 11
721.5324328469732
 21
1807.227719302188
 31
0.0
  0
LINE
  5
1EE
330
14E
100
AcDbEntity
  8
P-SANR-FIXT
100
AcDbLine
 10
721.5324328469732
 20
1806.245878730052
 30
0.0
 11
721.5324328469732
 21
1807.227719302188
 31
0.0
  0
LINE
  5
1EF
330
14E
100
AcDbEntity
  8
P-SANR-FIXT
100
AcDbLine
 10
721.5324328469732
 20
1818.717481030972
 30
0.0
 11
721.5324328469732
 21
1819.745878730052
 31
0.0
  0
LINE
  5
1F0
330
14E
100
AcDbEntity
  8
P-SANR-FIXT
100
AcDbLine
 10
721.5324328469732
 20
1818.717481030972
 30
0.0
 11
732.3003820394041
 21
1818.717481030972
 31
0.0
  0
LINE
  5
1F1
330
14E
100
AcDbEntity
  8
P-SANR-FIXT
100
AcDbLine
 10
732.3003820394041
 20
1819.745878730052
 30
0.0
 11
721.5324328469732
 21
1819.745878730052
 31
0.0
  0
LINE
  5
1F2
330
14E
100
AcDbEntity
  8
P-SANR-FIXT
100
AcDbLine
 10
732.3003820394041
 20
1805.264038157917
 30
0.0
 11
732.3003820394041
 21
1806.245878730052
 31
0.0
  0
SPLINE
  5
1F3
330
14E
100
AcDbEntity
  8
P-SANR-FIXT
100
AcDbSpline
210
0.0
220
0.0
230
1.0
 70
     8
 71
     3
 72
     9
 73
     5
 74
     0
 42
0.000000001
 43
0.0000000001
 40
-1.0
 40
-1.0
 40
-1.0
 40
-1.0
 40
-0.5
 40
-0.3752766100862719
 40
-0.3752766100862719
 40
-0.3752766100862719
 40
-0.3752766100862719
 10
732.3003820394041
 20
1805.264038157917
 30
0.0
 10
732.8956186326756
 20
1803.377026820471
 30
0.0
 10
733.267476855025
 20
1801.001846218184
 30
0.0
 10
733.1747180189077
 20
1798.604849821303
 30
0.0
 10
733.1376801981
 20
1798.125430056921
 30
0.0
  0
SPLINE
  5
1F4
330
14E
100
AcDbEntity
  8
P-SANR-FIXT
100
AcDbSpline
210
0.0
220
0.0
230
1.0
 70
     8
 71
     3
 72
     8
 73
     4
 74
     0
 42
0.000000001
 43
0.0000000001
 40
-0.3524044817861898
 40
-0.3524044817861898
 40
-0.3524044817861898
 40
-0.3524044817861898
 40
0.0
 40
0.0
 40
0.0
 40
0.0
 10
733.1154355649256
 20
1797.861590270106
 30
0.0
 10
732.9915946342954
 20
1796.506094223048
 30
0.0
 10
732.7199101257882
 20
1795.143656276057
 30
0.0
 10
732.3003820394041
 20
1793.774276429132
 30
0.0
  0
LINE
  5
1F5
330
14E
100
AcDbEntity
  8
P-SANR-FIXT
100
AcDbLine
 10
732.3003820394041
 20
1792.745878730052
 30
0.0
 11
732.3003820394041
 21
1793.774276429132
 31
0.0
  0
SPLINE
  5
1F6
330
14E
100
AcDbEntity
  8
P-SANR-FIXT
100
AcDbSpline
210
0.0
220
0.0
230
1.0
 70
    24
 71
     3
 72
     9
 73
     5
 74
     0
 42
0.000000001
 43
0.0000000001
 40
-1.0
 40
-1.0
 40
-1.0
 40
-1.0
 40
-0.5
 40
-0.4959566027626626
 40
-0.4959566027626626
 40
-0.4959566027626626
 40
-0.4959566027626626
 10
732.3003820394041
 20
1792.745878730053
 30
0.0
 10
732.8776977410414
 20
1792.745878730053
 30
0.0
 10
733.168689908573
 20
1792.745878730053
 30
0.0
 10
733.1663367147204
 20
1792.745878730053
 30
0.0
 10
733.1662989604414
 20
1792.745878730053
 30
0.0
  0
SPLINE
  5
1F7
330
14E
100
AcDbEntity
  8
P-SANR-FIXT
100
AcDbSpline
210
0.0
220
0.0
230
1.0
 70
    24
 71
     3
 72
     8
 73
     4
 74
     0
 42
0.000000001
 43
0.0000000001
 40
-0.5
 40
-0.5
 40
-0.5
 40
-0.5
 40
0.0
 40
0.0
 40
0.0
 40
0.0
 10
733.1663555918598
 20
1819.745878730052
 30
0.0
 10
733.1663555918598
 20
1819.745878730052
 30
0.0
 10
732.8776977410414
 20
1819.745878730052
 30
0.0
 10
732.3003820394041
 20
1819.745878730052
 30
0.0
  0
LINE
  5
1F8
330
14E
100
AcDbEntity
  8
P-SANR-FIXT
100
AcDbLine
 10
732.3003820394041
 20
1818.717481030972
 30
0.0
 11
732.3003820394041
 21
1819.745878730052
 31
0.0
  0
SPLINE
  5
1F9
330
14E
100
AcDbEntity
  8
P-SANR-FIXT
100
AcDbSpline
210
0.0
220
0.0
230
1.0
 70
     8
 71
     3
 72
     8
 73
     4
 74
     0
 42
0.000000001
 43
0.0000000001
 40
-1.0
 40
-1.0
 40
-1.0
 40
-1.0
 40
-0.6248733854770565
 40
-0.6248733854770565
 40
-0.6248733854770565
 40
-0.6248733854770565
 10
732.3003820394041
 20
1818.717481030972
 30
0.0
 10
732.7469602155523
 20
1817.301744681808
 30
0.0
 10
733.0260150323623
 20
1815.878142381252
 30
0.0
 10
733.1375464898339
 20
1814.446674129305
 30
0.0
  0
SPLINE
  5
1FA
330
14E
100
AcDbEntity
  8
P-SANR-FIXT
100
AcDbSpline
210
0.0
220
0.0
230
1.0
 70
     8
 71
     3
 72
     9
 73
     5
 74
     0
 42
0.000000001
 43
0.0000000001
 40
-0.617617386146771
 40
-0.617617386146771
 40
-0.617617386146771
 40
-0.617617386146771
 40
-0.5
 40
0.0
 40
0.0
 40
0.0
 40
0.0
 10
733.1438304485365
 20
1814.363599485128
 30
0.0
 10
733.1767681023864
 20
1813.91468080411
 30
0.0
 10
733.2632471015511
 20
1811.553315834332
 30
0.0
 10
732.8956186326756
 20
1809.170628541004
 30
0.0
 10
732.3003820394041
 20
1807.227719302188
 30
0.0
  0
LINE
  5
1FB
330
14E
100
AcDbEntity
  8
P-SANR-FIXT
100
AcDbLine
 10
732.3003820394041
 20
1806.245878730052
 30
0.0
 11
732.3003820394041
 21
1807.227719302188
 31
0.0
  0
ARC
  5
1FC
330
14E
100
AcDbEntity
  8
P-SANR-FIXT
100
AcDbCircle
 10
660.1664074431887
 20
1806.245878730052
 30
0.0
 40
12.00000000000002
100
AcDbArc
 50
179.9999999999997
 51
359.9999999999994
  0
ARC
  5
1FD
330
14E
100
AcDbEntity
  8
P-SANR-FIXT
100
AcDbCircle
 10
660.1664074431887
 20
1806.245878730052
 30
0.0
 40
11.99999999999994
100
AcDbArc
 50
0.0000000000002735
 51
180.0000000000003
  0
ARC
  5
1FE
330
14E
100
AcDbEntity
  8
P-SANR-FIXT
100
AcDbCircle
 10
700.1664074431887
 20
1806.245878730052
 30
0.0
 40
9.0
100
AcDbArc
 50
180.0
 51
0.0
  0
ARC
  5
1FF
330
14E
100
AcDbEntity
  8
P-SANR-FIXT
100
AcDbCircle
 10
700.1664074431887
 20
1806.245878730052
 30
0.0
 40
9.0
100
AcDbArc
 50
0.0
 51
180.0
  0
LINE
  5
200
330
14E
100
AcDbEntity
  8
P-SANR-FIXT
100
AcDbLine
 10
695.8362804242665
 20
1798.745878730052
 30
0.0
 11
691.5061534053444
 21
1806.245878730052
 31
0.0
  0
LINE
  5
201
330
14E
100
AcDbEntity
  8
P-SANR-FIXT
100
AcDbLine
 10
704.4965344621108
 20
1798.745878730052
 30
0.0
 11
695.8362804242665
 21
1798.745878730052
 31
0.0
  0
LINE
  5
202
330
14E
100
AcDbEntity
  8
P-SANR-FIXT
100
AcDbLine
 10
708.8266614810331
 20
1806.245878730052
 30
0.0
 11
704.4965344621108
 21
1798.745878730052
 31
0.0
  0
LINE
  5
203
330
14E
100
AcDbEntity
  8
P-SANR-FIXT
100
AcDbLine
 10
704.496534462111
 20
1813.745878730052
 30
0.0
 11
708.8266614810331
 21
1806.245878730052
 31
0.0
  0
LINE
  5
204
330
14E
100
AcDbEntity
  8
P-SANR-FIXT
100
AcDbLine
 10
695.8362804242665
 20
1813.745878730052
 30
0.0
 11
704.496534462111
 21
1813.745878730052
 31
0.0
  0
LINE
  5
205
330
14E
100
AcDbEntity
  8
P-SANR-FIXT
100
AcDbLine
 10
691.5061534053444
 20
1806.245878730052
 30
0.0
 11
695.8362804242665
 21
1813.745878730052
 31
0.0
  0
ENDBLK
  5
207
330
14E
100
AcDbEntity
  8
0
100
AcDbBlockEnd
  0
BLOCK
  5
27D
330
209
100
AcDbEntity
  8
0
100
AcDbBlockBegin
  2
Automatic flow rate regulator valve_Caleffi_121 DN15 - 1_2__-V2-Est - Idraulica
 70
     0
 10
0.0
 20
0.0
 30
0.0
  3
Automatic flow rate regulator valve_Caleffi_121 DN15 - 1_2__-V2-Est - Idraulica
  1

  0
LINE
  5
20A
330
209
100
AcDbEntity
  8
M-PIPE
100
AcDbLine
 10
1076.1143539431
 20
1957.232490787602
 30
0.0
 11
1076.1143539431
 21
1959.973218050121
 31
0.0
1001
REVIT
1002
{
1070
     3
1000
790271
1002
}
  0
LINE
  5
20B
330
209
100
AcDbEntity
  8
M-PIPE
100
AcDbLine
 10
1058.114353943093
 20
1959.973218050121
 30
0.0
 11
1058.114353943093
 21
1957.232490787602
 31
0.0
1001
REVIT
1002
{
1070
     3
1000
790271
1002
}
  0
ELLIPSE
  5
20C
330
209
100
AcDbEntity
  8
M-PIPE
100
AcDbEllipse
 10
1067.114353943096
 20
1959.973218050121
 30
0.0
 11
9.00000000000341
 21
0.0
 31
0.0
210
0.0
220
0.0
230
1.0
 40
0.819152044289005
 41
0.0
 42
1.570796326794871
1001
REVIT
1002
{
1070
     3
1000
790271
1002
}
  0
ELLIPSE
  5
20D
330
209
100
AcDbEntity
  8
M-PIPE
100
AcDbEllipse
 10
1067.114353943096
 20
1959.973218050121
 30
0.0
 11
9.000000000003183
 21
0.0
 31
0.0
210
0.0
220
0.0
230
1.0
 40
0.8191520442890258
 41
1.570796326794896
 42
3.141592653589793
1001
REVIT
1002
{
1070
     3
1000
790271
1002
}
  0
ELLIPSE
  5
20E
330
209
100
AcDbEntity
  8
M-PIPE
100
AcDbEllipse
 10
1067.114353943096
 20
1956.81854765019
 30
0.0
 11
7.75
 21
0.0
 31
0.0
210
0.0
220
0.0
230
1.0
 40
0.8191520442889903
 41
4.712388980384683
 42
7.853981633974482
1001
REVIT
1002
{
1070
     3
1000
790271
1002
}
  0
ELLIPSE
  5
20F
330
209
100
AcDbEntity
  8
M-PIPE
100
AcDbEllipse
 10
1067.114353943096
 20
1956.81854765019
 30
0.0
 11
-7.75
 21
0.0000000000006905
 31
0.0
210
0.0
220
0.0
230
1.0
 40
0.8191520442890196
 41
4.712388980384758
 42
7.853981633974551
1001
REVIT
1002
{
1070
     3
1000
790271
1002
}
  0
ELLIPSE
  5
210
330
209
100
AcDbEntity
  8
M-PIPE
100
AcDbEllipse
 10
1067.114353943096
 20
1958.826065177424
 30
0.0
 11
9.00000000000341
 21
0.0
 31
0.0
210
0.0
220
0.0
230
1.0
 40
0.819152044289005
 41
1.094914077137802
 42
1.570796326794896
1001
REVIT
1002
{
1070
     3
1000
790271
1002
}
  0
LINE
  5
211
330
209
100
AcDbEntity
  8
M-PIPE
100
AcDbLine
 10
1071.237459568689
 20
1965.37928153175
 30
0.0
 11
1071.237459568689
 21
1963.785707141927
 31
0.0
1001
REVIT
1002
{
1070
     3
1000
790271
1002
}
  0
ELLIPSE
  5
212
330
209
100
AcDbEntity
  8
M-PIPE
100
AcDbEllipse
 10
1067.114353943096
 20
1957.232490787601
 30
0.0
 11
9.000000000003396
 21
0.0
 31
0.0
210
0.0
220
0.0
230
1.0
 40
0.8191520442889814
 41
0.9994810252600251
 42
1.094914077137777
1001
REVIT
1002
{
1070
     3
1000
790271
1002
}
  0
LINE
  5
213
330
209
100
AcDbEntity
  8
M-PIPE
100
AcDbLine
 10
1071.981004360554
 20
1963.434056812957
 30
0.0
 11
1071.981004360554
 21
1965.02763120278
 31
0.0
1001
REVIT
1002
{
1070
     3
1000
790271
1002
}
  0
ELLIPSE
  5
214
330
209
100
AcDbEntity
  8
M-PIPE
100
AcDbEllipse
 10
1067.114353943096
 20
1958.826065177424
 30
0.0
 11
9.000000000003346
 21
0.0
 31
0.0
210
0.0
220
0.0
230
1.0
 40
0.8191520442889746
 41
0.0477165259365164
 42
0.9994810252600123
1001
REVIT
1002
{
1070
     3
1000
790271
1002
}
  0
LINE
  5
215
330
209
100
AcDbEntity
  8
M-PIPE
100
AcDbLine
 10
1076.104109986184
 20
1959.177715506378
 30
0.0
 11
1076.104109986184
 21
1957.584141116555
 31
0.0
1001
REVIT
1002
{
1070
     3
1000
790271
1002
}
  0
ELLIPSE
  5
216
330
209
100
AcDbEntity
  8
M-PIPE
100
AcDbEllipse
 10
1067.114353943096
 20
1957.232490787601
 30
0.0
 11
9.000000000003481
 21
0.0
 31
0.0
210
0.0
220
0.0
230
1.0
 40
0.8191520442889645
 41
6.235468781247046
 42
6.330901833116103
1001
REVIT
1002
{
1070
     3
1000
790271
1002
}
  0
ELLIPSE
  5
217
330
209
100
AcDbEntity
  8
M-PIPE
100
AcDbEllipse
 10
1067.114353943096
 20
1957.232490787601
 30
0.0
 11
9.000000000003458
 21
0.0
 31
0.0
210
0.0
220
0.0
230
1.0
 40
0.8191520442889782
 41
5.188271230049851
 42
5.283704281915478
1001
REVIT
1002
{
1070
     3
1000
790271
1002
}
  0
ELLIPSE
  5
218
330
209
100
AcDbEntity
  8
M-PIPE
100
AcDbEllipse
 10
1067.114353943096
 20
1957.232490787601
 30
0.0
 11
9.00000000000327
 21
0.0
 31
0.0
210
0.0
220
0.0
230
1.0
 40
0.8191520442890062
 41
4.141073678848618
 42
4.236506730719478
1001
REVIT
1002
{
1070
     3
1000
790271
1002
}
  0
ELLIPSE
  5
219
330
209
100
AcDbEntity
  8
M-PIPE
100
AcDbEllipse
 10
1067.114353943096
 20
1957.232490787601
 30
0.0
 11
9.000000000003311
 21
0.0
 31
0.0
210
0.0
220
0.0
230
1.0
 40
0.8191520442890018
 41
3.093876127647997
 42
3.189309179527506
1001
REVIT
1002
{
1070
     3
1000
790271
1002
}
  0
LINE
  5
21A
330
209
100
AcDbEntity
  8
M-PIPE
100
AcDbLine
 10
1058.12459790001
 20
1957.584141116594
 30
0.0
 11
1058.12459790001
 21
1959.177715506417
 31
0.0
1001
REVIT
1002
{
1070
     3
1000
790271
1002
}
  0
ELLIPSE
  5
21B
330
209
100
AcDbEntity
  8
M-PIPE
100
AcDbEllipse
 10
1067.114353943096
 20
1958.826065177424
 30
0.0
 11
9.00000000000325
 21
0.0
 31
0.0
210
0.0
220
0.0
230
1.0
 40
0.819152044288991
 41
2.142111628334967
 42
3.093876127647965
1001
REVIT
1002
{
1070
     3
1000
790271
1002
}
  0
LINE
  5
21C
330
209
100
AcDbEntity
  8
M-PIPE
100
AcDbLine
 10
1062.247703525598
 20
1965.027631202759
 30
0.0
 11
1062.247703525598
 21
1963.434056812937
 31
0.0
1001
REVIT
1002
{
1070
     3
1000
790271
1002
}
  0
ELLIPSE
  5
21D
330
209
100
AcDbEntity
  8
M-PIPE
100
AcDbEllipse
 10
1067.114353943096
 20
1957.232490787601
 30
0.0
 11
9.000000000003387
 21
0.0
 31
0.0
210
0.0
220
0.0
230
1.0
 40
0.8191520442889844
 41
2.046678576451972
 42
2.142111628334963
1001
REVIT
1002
{
1070
     3
1000
790271
1002
}
  0
LINE
  5
21E
330
209
100
AcDbEntity
  8
M-PIPE
100
AcDbLine
 10
1062.991248317503
 20
1963.785707141927
 30
0.0
 11
1062.991248317503
 21
1965.37928153175
 31
0.0
1001
REVIT
1002
{
1070
     3
1000
790271
1002
}
  0
ELLIPSE
  5
21F
330
209
100
AcDbEntity
  8
M-PIPE
100
AcDbEllipse
 10
1067.114353943096
 20
1958.826065177424
 30
0.0
 11
9.000000000003391
 21
0.0
 31
0.0
210
0.0
220
0.0
230
1.0
 40
0.8191520442890043
 41
1.570796326794896
 42
2.046678576451967
1001
REVIT
1002
{
1070
     3
1000
790271
1002
}
  0
SPLINE
  5
220
330
209
100
AcDbEntity
  8
M-PIPE
100
AcDbSpline
210
0.0
220
0.0
230
1.0
 70
     8
 71
     3
 72
     9
 73
     5
 74
     0
 42
0.000000001
 43
0.0000000001
 40
-1.0
 40
-1.0
 40
-1.0
 40
-1.0
 40
-0.5
 40
0.0
 40
0.0
 40
0.0
 40
0.0
 10
1067.114353943096
 20
1950.348119923368
 30
0.0
 10
1067.81367579924
 20
1950.351634107094
 30
0.0
 10
1069.200181926327
 20
1950.410340709141
 30
0.0
 10
1070.562412883012
 20
1950.572403780383
 30
0.0
 10
1071.237459568753
 20
1950.679274433303
 30
0.0
1001
REVIT
1002
{
1070
     3
1000
790271
1002
}
  0
SPLINE
  5
221
330
209
100
AcDbEntity
  8
M-PIPE
100
AcDbSpline
210
0.0
220
0.0
230
1.0
 70
     8
 71
     3
 72
     9
 73
     5
 74
     0
 42
0.000000001
 43
0.0000000001
 40
-1.0
 40
-1.0
 40
-1.0
 40
-1.0
 40
-0.5
 40
0.0
 40
0.0
 40
0.0
 40
0.0
 10
1071.981004360524
 20
1951.03092476223
 30
0.0
 10
1072.659110502979
 20
1951.772271106184
 30
0.0
 10
1074.024400916378
 20
1953.488603399546
 30
0.0
 10
1075.407847586754
 20
1955.672214903815
 30
0.0
 10
1076.104109986186
 20
1956.880840458677
 30
0.0
1001
REVIT
1002
{
1070
     3
1000
790271
1002
}
  0
SPLINE
  5
222
330
209
100
AcDbEntity
  8
M-PIPE
100
AcDbSpline
210
0.0
220
0.0
230
1.0
 70
     8
 71
     3
 72
     9
 73
     5
 74
     0
 42
0.000000001
 43
0.0000000001
 40
-1.0
 40
-1.0
 40
-1.0
 40
-1.0
 40
-0.5
 40
0.0
 40
0.0
 40
0.0
 40
0.0
 10
1076.104109986184
 20
1957.584141116555
 30
0.0
 10
1075.426003843734
 20
1958.325487460505
 30
0.0
 10
1074.060713430346
 20
1960.041819753855
 30
0.0
 10
1072.677266759981
 20
1962.225431258106
 30
0.0
 10
1071.981004360554
 20
1963.434056812957
 30
0.0
1001
REVIT
1002
{
1070
     3
1000
790271
1002
}
  0
SPLINE
  5
223
330
209
100
AcDbEntity
  8
M-PIPE
100
AcDbSpline
210
0.0
220
0.0
230
1.0
 70
     8
 71
     3
 72
     9
 73
     5
 74
     0
 42
0.000000001
 43
0.0000000001
 40
-1.0
 40
-1.0
 40
-1.0
 40
-1.0
 40
-0.5
 40
0.0
 40
0.0
 40
0.0
 40
0.0
 10
1071.237459568689
 20
1963.785707141927
 30
0.0
 10
1070.562412882957
 20
1963.678836489011
 30
0.0
 10
1069.200181926294
 20
1963.516773417774
 30
0.0
 10
1067.813675799229
 20
1963.458066815728
 30
0.0
 10
1067.114353943096
 20
1963.454552632003
 30
0.0
1001
REVIT
1002
{
1070
     3
1000
790271
1002
}
  0
SPLINE
  5
224
330
209
100
AcDbEntity
  8
M-PIPE
100
AcDbSpline
210
0.0
220
0.0
230
1.0
 70
     8
 71
     3
 72
     9
 73
     5
 74
     0
 42
0.000000001
 43
0.0000000001
 40
-1.0
 40
-1.0
 40
-1.0
 40
-1.0
 40
-0.5
 40
0.0
 40
0.0
 40
0.0
 40
0.0
 10
1067.114353943096
 20
1963.454552632003
 30
0.0
 10
1066.415032086963
 20
1963.458066815728
 30
0.0
 10
1065.028525959898
 20
1963.516773417774
 30
0.0
 10
1063.666295003234
 20
1963.678836489011
 30
0.0
 10
1062.991248317503
 20
1963.785707141927
 30
0.0
1001
REVIT
1002
{
1070
     3
1000
790271
1002
}
  0
SPLINE
  5
225
330
209
100
AcDbEntity
  8
M-PIPE
100
AcDbSpline
210
0.0
220
0.0
230
1.0
 70
     8
 71
     3
 72
     9
 73
     5
 74
     0
 42
0.000000001
 43
0.0000000001
 40
-1.0
 40
-1.0
 40
-1.0
 40
-1.0
 40
-0.5
 40
0.0
 40
0.0
 40
0.0
 40
0.0
 10
1062.247703525598
 20
1963.434056812937
 30
0.0
 10
1061.551441126178
 20
1962.2254312581
 30
0.0
 10
1060.167994455827
 20
1960.041819753874
 30
0.0
 10
1058.802704042453
 20
1958.325487460539
 30
0.0
 10
1058.12459790001
 20
1957.584141116594
 30
0.0
1001
REVIT
1002
{
1070
     3
1000
790271
1002
}
  0
SPLINE
  5
226
330
209
100
AcDbEntity
  8
M-PIPE
100
AcDbSpline
210
0.0
220
0.0
230
1.0
 70
     8
 71
     3
 72
     9
 73
     5
 74
     0
 42
0.000000001
 43
0.0000000001
 40
-1.0
 40
-1.0
 40
-1.0
 40
-1.0
 40
-0.5
 40
0.0
 40
0.0
 40
0.0
 40
0.0
 10
1058.124597900008
 20
1956.880840458639
 30
0.0
 10
1058.820860299433
 20
1955.672214903791
 30
0.0
 10
1060.204306969795
 20
1953.488603399546
 30
0.0
 10
1061.56959738318
 20
1951.772271106199
 30
0.0
 10
1062.247703525628
 20
1951.03092476225
 30
0.0
1001
REVIT
1002
{
1070
     3
1000
790271
1002
}
  0
SPLINE
  5
227
330
209
100
AcDbEntity
  8
M-PIPE
100
AcDbSpline
210
0.0
220
0.0
230
1.0
 70
     8
 71
     3
 72
     9
 73
     5
 74
     0
 42
0.000000001
 43
0.0000000001
 40
-1.0
 40
-1.0
 40
-1.0
 40
-1.0
 40
-0.5
 40
0.0
 40
0.0
 40
0.0
 40
0.0
 10
1062.991248317438
 20
1950.679274433303
 30
0.0
 10
1063.66629500318
 20
1950.572403780384
 30
0.0
 10
1065.028525959864
 20
1950.410340709142
 30
0.0
 10
1066.415032086951
 20
1950.351634107094
 30
0.0
 10
1067.114353943096
 20
1950.348119923368
 30
0.0
1001
REVIT
1002
{
1070
     3
1000
790271
1002
}
  0
LINE
  5
228
330
209
100
AcDbEntity
  8
M-PIPE
100
AcDbLine
 10
1062.991248317503
 20
1965.37928153175
 30
0.0
 11
1071.237459568688
 21
1965.37928153175
 31
0.0
1001
REVIT
1002
{
1070
     3
1000
790271
1002
}
  0
LINE
  5
229
330
209
100
AcDbEntity
  8
M-PIPE
100
AcDbLine
 10
1071.981004360554
 20
1965.02763120278
 30
0.0
 11
1076.104109986184
 21
1959.177715506378
 31
0.0
1001
REVIT
1002
{
1070
     3
1000
790271
1002
}
  0
LINE
  5
22A
330
209
100
AcDbEntity
  8
M-PIPE
100
AcDbLine
 10
1058.12459790001
 20
1959.177715506417
 30
0.0
 11
1062.247703525598
 21
1965.027631202759
 31
0.0
1001
REVIT
1002
{
1070
     3
1000
790271
1002
}
  0
LINE
  5
22B
330
209
100
AcDbEntity
  8
P-SANR-FIXT
100
AcDbLine
 10
1076.114353943097
 20
2024.482558850012
 30
0.0
 11
1076.114353943097
 21
2026.482558850007
 31
0.0
  0
LINE
  5
22C
330
209
100
AcDbEntity
  8
P-SANR-FIXT
100
AcDbLine
 10
1058.114353943097
 20
2026.482558850007
 30
0.0
 11
1058.114353943097
 21
2024.482558850012
 31
0.0
  0
LINE
  5
22D
330
209
100
AcDbEntity
  8
P-SANR-FIXT
100
AcDbLine
 10
1076.114353943096
 20
2026.482558850006
 30
0.0
 11
1067.114353943096
 21
2026.482558850006
 31
0.0
  0
LINE
  5
22E
330
209
100
AcDbEntity
  8
P-SANR-FIXT
100
AcDbLine
 10
1067.114353943096
 20
2026.482558850006
 30
0.0
 11
1058.114353943096
 21
2026.482558850006
 31
0.0
  0
LINE
  5
22F
330
209
100
AcDbEntity
  8
P-SANR-FIXT
100
AcDbLine
 10
1067.114353943096
 20
2029.982558850011
 30
0.0
 11
1074.614353943096
 21
2029.982558850011
 31
0.0
  0
LINE
  5
230
330
209
100
AcDbEntity
  8
P-SANR-FIXT
100
AcDbLine
 10
1059.614353943096
 20
2029.982558850011
 30
0.0
 11
1067.114353943096
 21
2029.982558850011
 31
0.0
  0
LINE
  5
231
330
209
100
AcDbEntity
  8
P-SANR-FIXT
100
AcDbLine
 10
1074.614353943096
 20
2029.982558850011
 30
0.0
 11
1074.614353943096
 21
2026.482558850006
 31
0.0
  0
LINE
  5
232
330
209
100
AcDbEntity
  8
P-SANR-FIXT
100
AcDbLine
 10
1067.114353943096
 20
2029.982558850011
 30
0.0
 11
1067.114353943096
 21
2026.482558850006
 31
0.0
  0
LINE
  5
233
330
209
100
AcDbEntity
  8
P-SANR-FIXT
100
AcDbLine
 10
1059.614353943096
 20
2029.982558850011
 30
0.0
 11
1059.614353943096
 21
2026.482558850006
 31
0.0
  0
LWPOLYLINE
  5
234
330
209
100
AcDbEntity
  8
P-SANR-FIXT
100
AcDbPolyline
 90
       19
 70
   128
 43
0.0
 10
1083.864353943098
 20
2001.557509685601
 10
1083.849781290972
 20
2002.154319686658
 10
1083.806111754013
 20
2002.749832454253
 10
1083.733489666921
 20
2003.342761717216
 10
1083.63215256007
 20
2003.931842720559
 10
1083.502426792241
 20
2004.515841992374
 10
1083.344721767709
 20
2005.093566001534
 10
1083.159523032658
 20
2005.66386846043
 10
1082.94738458372
 20
2006.225656115596
 10
1082.708920733044
 20
2006.777892960866
 10
1082.444797861279
 20
2007.319602894649
 10
1082.155726356344
 20
2007.849870918064
 10
1081.842452987341
 20
2008.367843029639
 10
1081.505753905849
 20
2008.872725012707
 10
1081.146428406753
 20
2009.36378033348
 10
1080.765293523215
 20
2009.840327372754
 10
1080.363179478813
 20
2010.301736205212
 10
1079.940925977076
 20
2010.747425120804
 10
1079.614352532428
 20
2011.065038333474
  0
LWPOLYLINE
  5
235
330
209
100
AcDbEntity
  8
P-SANR-FIXT
100
AcDbPolyline
 90
       20
 70
   128
 43
0.0
 10
1054.614355353872
 20
2011.064072629361
 10
1054.405093447172
 20
2010.864955488464
 10
1053.977548956928
 20
2010.423603326245
 10
1053.569916053394
 20
2009.96638203909
 10
1053.183036466296
 20
2009.493860934683
 10
1052.817743309618
 20
2009.006656575365
 10
1052.474857589226
 20
2008.505436296333
 10
1052.155183884543
 20
2007.990921514124
 10
1051.859505174558
 20
2007.463890637435
 10
1051.588576818737
 20
2006.925181370732
 10
1051.343119752777
 20
2006.375692188855
 10
1051.123813015415
 20
2005.816382761751
 10
1050.931285782357
 20
2005.248273125519
 10
1050.766109141855
 20
2004.672441431277
 10
1050.628787897949
 20
2004.090020157474
 10
1050.519752725497
 20
2003.502190742369
 10
1050.439353020189
 20
2002.910176677783
 10
1050.387850782046
 20
2002.315235196459
 10
1050.365415840148
 20
2001.718647775666
 10
1050.364353943098
 20
2001.557509685602
  0
LINE
  5
236
330
209
100
AcDbEntity
  8
P-SANR-FIXT
100
AcDbLine
 10
1083.864353943097
 20
1994.893969170724
 30
0.0
 11
1083.864353943098
 21
2001.557509685601
 31
0.0
  0
LINE
  5
237
330
209
100
AcDbEntity
  8
P-SANR-FIXT
100
AcDbLine
 10
1050.364353943098
 20
2001.557509685601
 30
0.0
 11
1050.364353943098
 21
1994.893969170724
 31
0.0
  0
LINE
  5
238
330
209
100
AcDbEntity
  8
P-SANR-FIXT
100
AcDbLine
 10
1085.614353943098
 20
1984.774486491117
 30
0.0
 11
1085.614353943098
 21
1988.502733327399
 31
0.0
  0
LINE
  5
239
330
209
100
AcDbEntity
  8
P-SANR-FIXT
100
AcDbLine
 10
1048.614353943098
 20
1988.502733327399
 30
0.0
 11
1048.614353943098
 21
1984.774486491117
 31
0.0
  0
LINE
  5
23A
330
209
100
AcDbEntity
  8
P-SANR-FIXT
100
AcDbLine
 10
1084.864353943097
 20
1977.511146528147
 30
0.0
 11
1084.864353943097
 21
1984.344304163854
 31
0.0
  0
LINE
  5
23B
330
209
100
AcDbEntity
  8
P-SANR-FIXT
100
AcDbLine
 10
1049.364353943097
 20
1984.344304163854
 30
0.0
 11
1049.364353943097
 21
1977.506054293741
 31
0.0
  0
LWPOLYLINE
  5
23C
330
209
100
AcDbEntity
  8
P-SANR-FIXT
100
AcDbPolyline
 90
       34
 70
   128
 43
0.0
 10
1086.114353943098
 20
1971.9182217524
 10
1086.09876449009
 20
1972.556652796139
 10
1086.052029439629
 20
1973.193948331475
 10
1085.974248382078
 20
1973.82897762891
 10
1085.865586200712
 20
1974.460619378813
 10
1085.726271478849
 20
1975.087766066473
 10
1085.556594380566
 20
1975.709327972017
 10
1085.35690410362
 20
1976.32423671151
 10
1085.127606015911
 20
1976.93144826508
 10
1084.869158590758
 20
1977.529945468518
 10
1084.58207025203
 20
1978.118739973825
 10
1084.266896229047
 20
1978.696873709212
 10
1083.924235505134
 20
1979.263419888782
 10
1083.554727924689
 20
1979.817483635576
 10
1083.159051503746
 20
1980.35820228902
 10
1082.737919969841
 20
1980.884745469468
 10
1082.29208053995
 20
1981.396314969584
 10
1081.822311930998
 20
1981.892144535848
 10
1081.329422586536
 20
1982.371499594728
 10
1080.814249095463
 20
1982.833676968155
 10
1080.277654774041
 20
1983.278004612734
 10
1079.720528380374
 20
1983.703841407476
 10
1079.14378293058
 20
1984.110577005982
 10
1078.548354587459
 20
1984.497631761558
 10
1077.935201595161
 20
1984.864456727469
 10
1077.305303236673
 20
1985.21053372974
 10
1076.659658794566
 20
1985.535375506293
 10
1075.99928649916
 20
1985.838525903691
 10
1075.32522245172
 20
1986.119560121235
 10
1074.638519513638
 20
1986.378084991315
 10
1073.940246155387
 20
1986.613739284745
 10
1073.231485261632
 20
1986.826194030031
 10
1072.513332891025
 20
1987.015152836094
 10
1071.963739763985
 20
1987.140136251438
  0
LWPOLYLINE
  5
23D
330
209
100
AcDbEntity
  8
P-SANR-FIXT
100
AcDbPolyline
 90
       35
 70
   128
 43
0.0
 10
1062.266022636495
 20
1987.139527427331
 10
1061.91067628341
 20
1987.062092693006
 10
1061.190178490973
 20
1986.879522169689
 10
1060.478774248063
 20
1986.67338133371
 10
1059.777562950691
 20
1986.443957727713
 10
1059.087631163378
 20
1986.191571561178
 10
1058.410051366718
 20
1985.916575388462
 10
1057.745880750312
 20
1985.619353787592
 10
1057.09616005016
 20
1985.300323050108
 10
1056.461912427469
 20
1984.95993089285
 10
1055.844142383447
 20
1984.598656202977
 10
1055.243834701796
 20
1984.217008827374
 10
1054.661953407478
 20
1983.815529417032
 10
1054.099440726858
 20
1983.394789335608
 10
1053.557216030657
 20
1982.955390639159
 10
1053.036174737526
 20
1982.497966130743
 10
1052.537187152561
 20
1982.023179489096
 10
1052.061097212219
 20
1981.531725464743
 10
1051.608721105158
 20
1981.02433012974
 10
1051.180845737991
 20
1980.501751158772
 10
1050.778227016423
 20
1979.964778109838
 10
1050.4015879161
 20
1979.414232662655
 10
1050.051616324378
 20
1978.85096876283
 10
1049.72896264423
 20
1978.275872610715
 10
1049.434237164917
 20
1977.689862426636
 10
1049.168007220376
 20
1977.093887920189
 10
1048.93079417499
 20
1976.488929391608
 10
1048.723070296263
 20
1975.875996398931
 10
1048.545255593342
 20
1975.256125936491
 10
1048.397714717369
 20
1974.630380088321
 10
1048.280754032325
 20
1973.99984314378
 10
1048.194618971248
 20
1973.365618190858
 10
1048.139491791075
 20
1972.728823233027
 10
1048.115489829029
 20
1972.09058690565
 10
1048.114353943097
 20
1971.9182217524
  0
LINE
  5
23E
330
209
100
AcDbEntity
  8
P-SANR-FIXT
100
AcDbLine
 10
1086.114353943098
 20
1966.856135286362
 30
0.0
 11
1086.114353943098
 21
1971.9182217524
 31
0.0
  0
LINE
  5
23F
330
209
100
AcDbEntity
  8
P-SANR-FIXT
100
AcDbLine
 10
1048.114353943097
 20
1971.9182217524
 30
0.0
 11
1048.114353943097
 21
1966.856135286363
 31
0.0
  0
LWPOLYLINE
  5
240
330
209
100
AcDbEntity
  8
P-SANR-FIXT
100
AcDbPolyline
 90
       41
 70
   128
 43
0.0
 10
1067.114353943098
 20
1949.800245202253
 10
1067.846933256486
 20
1949.812248750263
 10
1068.578392250735
 20
1949.84824273341
 10
1069.307612061156
 20
1949.90817719244
 10
1070.033476725697
 20
1949.991968939431
 10
1070.754874620674
 20
1950.099501672409
 10
1071.470699878052
 20
1950.230626132485
 10
1072.179853778502
 20
1950.385160300189
 10
1072.881246114913
 20
1950.562889626639
 10
1073.573796521494
 20
1950.76356729418
 10
1074.25643576435
 20
1950.986914500074
 10
1074.928106990283
 20
1951.232620755782
 10
1075.587766931706
 20
1951.500344193383
 10
1076.234387066961
 20
1951.789711869671
 10
1076.866954737075
 20
1952.100320057713
 10
1077.484474222029
 20
1952.431734514949
 10
1078.085967782067
 20
1952.783490716627
 10
1078.67047667239
 20
1953.155094043411
 10
1079.237062142731
 20
1953.546019912646
 10
1079.784806436782
 20
1953.955713844089
 10
1080.312813810088
 20
1954.383591453168
 10
1080.820211588683
 20
1954.829038368104
 10
1081.306151294184
 20
1955.29141007176
 10
1081.769809863957
 20
1955.770031674861
 10
1082.210390996887
 20
1956.264197634487
 10
1082.6271266558
 20
1956.773171440131
 10
1083.01927875615
 20
1957.296185299158
 10
1083.386141066652
 20
1957.832439863578
 10
1083.727041340729
 20
1958.381104050145
 10
1084.041343687579
 20
1958.941315014935
 10
1084.328451178294
 20
1959.512178350747
 10
1084.587808666094
 20
1960.092768579709
 10
1084.818905781061
 20
1960.682130013152
 10
1085.021280039872
 20
1961.279278045061
 10
1085.194519991635
 20
1961.883200933674
 10
1085.338268303831
 20
1962.492862107675
 10
1085.452224679774
 20
1963.107203009749
 10
1085.536148492678
 20
1963.725146462122
 10
1085.589861023133
 20
1964.345600508249
 10
1085.613247197051
 20
1964.96746265474
 10
1085.614353943098
 20
1965.135405977311
  0
LWPOLYLINE
  5
241
330
209
100
AcDbEntity
  8
P-SANR-FIXT
100
AcDbPolyline
 90
       41
 70
   128
 43
0.0
 10
1048.614353943097
 20
1965.135405977311
 10
1048.629543449435
 20
1964.513353605996
 10
1048.675079299717
 20
1963.892410540702
 10
1048.750863822044
 20
1963.273681350464
 10
1048.856735327171
 20
1962.658261268218
 10
1048.992469696266
 20
1962.047231857467
 10
1049.157782493055
 20
1961.441657053879
 10
1049.35233150173
 20
1960.842579665436
 10
1049.575719579325
 20
1960.251018385228
 10
1049.827497707275
 20
1959.667965340361
 10
1050.107168131166
 20
1959.094384171479
 10
1050.414187488757
 20
1958.531208612274
 10
1050.74796984245
 20
1957.979341518756
 10
1051.107889551344
 20
1957.439654284475
 10
1051.493283937955
 20
1956.912986570653
 10
1051.903455723808
 20
1956.40014627843
 10
1052.337675225187
 20
1955.901909693443
 10
1052.795182314572
 20
1955.419021739393
 10
1053.275188164229
 20
1954.952196285992
 10
1053.776876796101
 20
1954.502116466615
 10
1054.299406466827
 20
1954.069434971148
 10
1054.841910918741
 20
1953.65477428923
 10
1055.403500527714
 20
1953.25872688786
 10
1055.983263377058
 20
1952.881855314899
 10
1056.580266284069
 20
1952.524692226161
 10
1057.193555802456
 20
1952.187740338678
 10
1057.822159220244
 20
1951.871472316293
 10
1058.465085569122
 20
1951.576330596263
 10
1059.121326657613
 20
1951.302727167113
 10
1059.789858137259
 20
1951.051043308776
 10
1060.469640608045
 20
1950.821629306279
 10
1061.159620766782
 20
1950.614804147982
 10
1061.858732599985
 20
1950.430855218825
 10
1062.565898620988
 20
1950.270037998247
 10
1063.280031149514
 20
1950.132575771499
 10
1064.000033630762
 20
1950.018659362118
 10
1064.724801990071
 20
1949.928446892224
 10
1065.453226018521
 20
1949.862063576318
 10
1066.184190784223
 20
1949.819601553192
 10
1066.916578063656
 20
1949.801119759564
 10
1067.114353943098
 20
1949.800245202253
  0
LINE
  5
242
330
209
100
AcDbEntity
  8
P-SANR-FIXT
100
AcDbLine
 10
1085.614353943098
 20
1965.135405977311
 30
0.0
 11
1085.614353943098
 21
1966.282558850003
 31
0.0
  0
LINE
  5
243
330
209
100
AcDbEntity
  8
P-SANR-FIXT
100
AcDbLine
 10
1048.614353943097
 20
1966.282558850003
 30
0.0
 11
1048.614353943097
 21
1965.135405977311
 31
0.0
  0
ELLIPSE
  5
244
330
209
100
AcDbEntity
  8
P-SANR-FIXT
100
AcDbEllipse
 10
1067.114353943096
 20
1988.502733327398
 30
0.0
 11
18.50000000000011
 21
0.0
 31
0.0
210
0.0
220
0.0
230
1.0
 40
0.8191520442889817
 41
0.0
 42
0.7516974194750446
  0
ELLIPSE
  5
245
330
209
100
AcDbEntity
  8
P-SANR-FIXT
100
AcDbEllipse
 10
1067.114353943096
 20
1988.502733327398
 30
0.0
 11
18.49999999999977
 21
0.0
 31
0.0
210
0.0
220
0.0
230
1.0
 40
0.8191520442889917
 41
2.389895234114784
 42
3.141592653589793
  0
ELLIPSE
  5
246
330
209
100
AcDbEntity
  8
P-SANR-FIXT
100
AcDbEllipse
 10
1067.114353943096
 20
1984.774486491116
 30
0.0
 11
18.5000000000001
 21
0.0
 31
0.0
210
0.0
220
0.0
230
1.0
 40
0.8191520442889899
 41
5.999032770594318
 42
7.034882726654656
  0
ELLIPSE
  5
247
330
209
100
AcDbEntity
  8
P-SANR-FIXT
100
AcDbEllipse
 10
1067.114353943096
 20
1984.774486491116
 30
0.0
 11
18.49999999999997
 21
0.0
 31
0.0
210
0.0
220
0.0
230
1.0
 40
0.819152044288992
 41
2.389895234114763
 42
3.425745190175068
  0
ELLIPSE
  5
248
330
209
100
AcDbEntity
  8
P-SANR-FIXT
100
AcDbEllipse
 10
1067.114353943096
 20
1984.344304163853
 30
0.0
 11
17.75000000000024
 21
0.0
 31
0.0
210
0.0
220
0.0
230
1.0
 40
0.8191520442889828
 41
0.0
 42
0.7057654332239776
  0
ELLIPSE
  5
249
330
209
100
AcDbEntity
  8
P-SANR-FIXT
100
AcDbEllipse
 10
1067.114353943096
 20
1984.344304163853
 30
0.0
 11
17.75
 21
0.0
 31
0.0
210
0.0
220
0.0
230
1.0
 40
0.8191520442889899
 41
2.435827220365872
 42
3.141592653589793
  0
ELLIPSE
  5
24A
330
209
100
AcDbEntity
  8
P-SANR-FIXT
100
AcDbEllipse
 10
1067.114353943096
 20
1966.856135286362
 30
0.0
 11
19.0
 21
0.0
 31
0.0
210
0.0
220
0.0
230
1.0
 40
0.8191520442889883
 41
5.977790677602561
 42
7.853981633974482
  0
ELLIPSE
  5
24B
330
209
100
AcDbEntity
  8
P-SANR-FIXT
100
AcDbEllipse
 10
1067.114353943096
 20
1966.856135286362
 30
0.0
 11
18.9999999999999
 21
0.0
 31
0.0
210
0.0
220
0.0
230
1.0
 40
0.8191520442889943
 41
1.570796326794896
 42
3.446987283166821
  0
LINE
  5
24C
330
209
100
AcDbEntity
  8
P-SANR-FIXT
100
AcDbLine
 10
1056.144698828493
 20
1959.973218050123
 30
0.0
 11
1058.076403246264
 21
1957.232490787617
 31
0.0
  0
LINE
  5
24D
330
209
100
AcDbEntity
  8
P-SANR-FIXT
100
AcDbLine
 10
1076.152304639928
 20
1957.232490787616
 30
0.0
 11
1078.084009057699
 21
1959.973218050122
 31
0.0
  0
LINE
  5
24E
330
209
100
AcDbEntity
  8
P-SANR-FIXT
100
AcDbLine
 10
1078.084009057699
 20
1959.973218050122
 30
0.0
 11
1072.599181500398
 21
1967.755162470889
 31
0.0
  0
LINE
  5
24F
330
209
100
AcDbEntity
  8
P-SANR-FIXT
100
AcDbLine
 10
1072.599181500398
 20
1967.755162470889
 30
0.0
 11
1061.629526385795
 21
1967.755162470889
 31
0.0
  0
LINE
  5
250
330
209
100
AcDbEntity
  8
P-SANR-FIXT
100
AcDbLine
 10
1061.629526385795
 20
1967.755162470889
 30
0.0
 11
1056.144698828493
 21
1959.973218050123
 31
0.0
  0
LINE
  5
251
330
209
100
AcDbEntity
  8
P-SANR-FIXT
100
AcDbLine
 10
1056.144698828493
 20
1959.973218050123
 30
0.0
 11
1056.144698828493
 21
1964.561829540945
 31
0.0
  0
LINE
  5
252
330
209
100
AcDbEntity
  8
P-SANR-FIXT
100
AcDbLine
 10
1078.084009057699
 20
1964.561829540945
 30
0.0
 11
1078.084009057699
 21
1959.973218050122
 31
0.0
  0
LINE
  5
253
330
209
100
AcDbEntity
  8
P-SANR-FIXT
100
AcDbLine
 10
1078.084009057699
 20
1964.561829540945
 30
0.0
 11
1072.599181500398
 21
1972.343773961691
 31
0.0
  0
LINE
  5
254
330
209
100
AcDbEntity
  8
P-SANR-FIXT
100
AcDbLine
 10
1072.599181500398
 20
1972.343773961712
 30
0.0
 11
1072.599181500398
 21
1967.755162470889
 31
0.0
  0
LINE
  5
255
330
209
100
AcDbEntity
  8
P-SANR-FIXT
100
AcDbLine
 10
1072.599181500398
 20
1972.34377396169
 30
0.0
 11
1067.114353943096
 21
1972.343773961691
 31
0.0
  0
LINE
  5
256
330
209
100
AcDbEntity
  8
P-SANR-FIXT
100
AcDbLine
 10
1067.114353943096
 20
1972.343773961691
 30
0.0
 11
1061.629526385795
 21
1972.343773961691
 31
0.0
  0
LINE
  5
257
330
209
100
AcDbEntity
  8
P-SANR-FIXT
100
AcDbLine
 10
1061.629526385795
 20
1972.343773961712
 30
0.0
 11
1061.629526385795
 21
1967.755162470889
 31
0.0
  0
LINE
  5
258
330
209
100
AcDbEntity
  8
P-SANR-FIXT
100
AcDbLine
 10
1061.629526385795
 20
1972.343773961691
 30
0.0
 11
1056.144698828493
 21
1964.561829540945
 31
0.0
  0
ELLIPSE
  5
259
330
209
100
AcDbEntity
  8
P-SANR-FIXT
100
AcDbEllipse
 10
1067.114353943096
 20
1966.282558850002
 30
0.0
 11
18.5
 21
0.0
 31
0.0
210
0.0
220
0.0
230
1.0
 40
0.8191520442890062
 41
0.00000000000003
 42
1.570796326794896
  0
ELLIPSE
  5
25A
330
209
100
AcDbEntity
  8
P-SANR-FIXT
100
AcDbEllipse
 10
1067.114353943096
 20
1966.282558850002
 30
0.0
 11
18.50000000000022
 21
0.0
 31
0.0
210
0.0
220
0.0
230
1.0
 40
0.8191520442889961
 41
1.570796326794908
 42
3.141592653589793
  0
LINE
  5
25B
330
209
100
AcDbEntity
  8
P-SANR-FIXT
100
AcDbLine
 10
1079.614353943097
 20
2008.316773632921
 30
0.0
 11
1079.614353943097
 21
2023.982558850012
 31
0.0
  0
LINE
  5
25C
330
209
100
AcDbEntity
  8
P-SANR-FIXT
100
AcDbLine
 10
1054.614353943097
 20
2023.982558850012
 30
0.0
 11
1054.614353943097
 21
2008.316773632921
 31
0.0
  0
LINE
  5
25D
330
209
100
AcDbEntity
  8
P-SANR-FIXT
100
AcDbLine
 10
1079.614353943097
 20
2023.982558850012
 30
0.0
 11
1079.574385436324
 21
2024.022527356785
 31
0.0
  0
LINE
  5
25E
330
209
100
AcDbEntity
  8
P-SANR-FIXT
100
AcDbLine
 10
1079.566787669244
 20
2024.030125123865
 30
0.0
 11
1079.114353943098
 21
2024.482558850012
 31
0.0
  0
LINE
  5
25F
330
209
100
AcDbEntity
  8
P-SANR-FIXT
100
AcDbLine
 10
1055.114353943097
 20
2024.482558850012
 30
0.0
 11
1054.661920216951
 21
2024.030125123865
 31
0.0
  0
LINE
  5
260
330
209
100
AcDbEntity
  8
P-SANR-FIXT
100
AcDbLine
 10
1054.654322449871
 20
2024.022527356785
 30
0.0
 11
1054.614353943097
 21
2023.982558850012
 31
0.0
  0
ARC
  5
261
330
209
100
AcDbEntity
  8
P-SANR-FIXT
100
AcDbCircle
 10
1067.114353943096
 20
1999.982558850011
 30
0.0
 40
6.349999999999909
100
AcDbArc
 50
269.9999999999997
 51
90.0
  0
ARC
  5
262
330
209
100
AcDbEntity
  8
P-SANR-FIXT
100
AcDbCircle
 10
1067.114353943096
 20
1999.982558850011
 30
0.0
 40
6.349999999999909
100
AcDbArc
 50
90.00000000000206
 51
269.9999999999997
  0
LINE
  5
263
330
209
100
AcDbEntity
  8
P-SANR-FIXT
100
AcDbLine
 10
1079.614353943096
 20
2023.982558850011
 30
0.0
 11
1067.114353943096
 21
2023.982558850011
 31
0.0
  0
LINE
  5
264
330
209
100
AcDbEntity
  8
P-SANR-FIXT
100
AcDbLine
 10
1067.114353943096
 20
2023.982558850011
 30
0.0
 11
1054.614353943096
 21
2023.982558850011
 31
0.0
  0
ARC
  5
265
330
209
100
AcDbEntity
  8
P-SANR-FIXT
100
AcDbCircle
 10
1067.114353943096
 20
1999.982558850011
 30
0.0
 40
13.49999999999954
100
AcDbArc
 50
269.9999999999997
 51
90.0
  0
SPLINE
  5
266
330
209
100
AcDbEntity
  8
P-SANR-FIXT
100
AcDbSpline
210
0.0
220
0.0
230
1.0
 70
    24
 71
     3
 72
     9
 73
     5
 74
     0
 42
0.000000001
 43
0.0000000001
 40
-1.0
 40
-1.0
 40
-1.0
 40
-1.0
 40
-0.5
 40
0.0
 40
0.0
 40
0.0
 40
0.0
 10
1068.309273204333
 20
1985.030228999478
 30
0.0
 10
1070.197522756781
 20
1986.120410386881
 30
0.0
 10
1073.945225409973
 20
1988.284147522544
 30
0.0
 10
1077.63533515976
 20
1990.414633379923
 30
0.0
 10
1079.465991808803
 20
1991.471563489042
 30
0.0
  0
SPLINE
  5
267
330
209
100
AcDbEntity
  8
P-SANR-FIXT
100
AcDbSpline
210
0.0
220
0.0
230
1.0
 70
    24
 71
     3
 72
     9
 73
     5
 74
     0
 42
0.000000001
 43
0.0000000001
 40
-1.0
 40
-1.0
 40
-1.0
 40
-1.0
 40
-0.5
 40
0.0
 40
0.0
 40
0.0
 40
0.0
 10
1080.614353943096
 20
1993.444210434699
 30
0.0
 10
1080.614353943096
 20
1995.656488449085
 30
0.0
 10
1080.614353943096
 20
2000.04821593524
 30
0.0
 10
1080.614353943096
 20
2004.374286336166
 30
0.0
 10
1080.614353943096
 20
2006.520907265322
 30
0.0
  0
SPLINE
  5
268
330
209
100
AcDbEntity
  8
P-SANR-FIXT
100
AcDbSpline
210
0.0
220
0.0
230
1.0
 70
    24
 71
     3
 72
     9
 73
     5
 74
     0
 42
0.000000001
 43
0.0000000001
 40
-1.0
 40
-1.0
 40
-1.0
 40
-1.0
 40
-0.5
 40
0.0
 40
0.0
 40
0.0
 40
0.0
 10
1079.585956244017
 20
2008.316773632921
 30
0.0
 10
1077.643047005201
 20
2009.438512804962
 30
0.0
 10
1073.785177478255
 20
2011.665854814843
 30
0.0
 10
1069.983205852678
 20
2013.860924156321
 30
0.0
 10
1068.096194515232
 20
2014.950390659959
 30
0.0
  0
ARC
  5
269
330
209
100
AcDbEntity
  8
P-SANR-FIXT
100
AcDbCircle
 10
1067.114353943096
 20
1999.982558850011
 30
0.0
 40
13.49999999999954
100
AcDbArc
 50
90.0
 51
269.9999999999997
  0
SPLINE
  5
26A
330
209
100
AcDbEntity
  8
P-SANR-FIXT
100
AcDbSpline
210
0.0
220
0.0
230
1.0
 70
    24
 71
     3
 72
     9
 73
     5
 74
     0
 42
0.000000001
 43
0.0000000001
 40
-1.0
 40
-1.0
 40
-1.0
 40
-1.0
 40
-0.5
 40
0.0
 40
0.0
 40
0.0
 40
0.0
 10
1066.132513370961
 20
2014.950390659959
 30
0.0
 10
1064.189604132145
 20
2013.828651487918
 30
0.0
 10
1060.331734605199
 20
2011.601309478037
 30
0.0
 10
1056.529762979622
 20
2009.406240136559
 30
0.0
 10
1054.642751642176
 20
2008.316773632921
 30
0.0
  0
SPLINE
  5
26B
330
209
100
AcDbEntity
  8
P-SANR-FIXT
100
AcDbSpline
210
0.0
220
0.0
230
1.0
 70
    24
 71
     3
 72
     9
 73
     5
 74
     0
 42
0.000000001
 43
0.0000000001
 40
-1.0
 40
-1.0
 40
-1.0
 40
-1.0
 40
-0.5
 40
0.0
 40
0.0
 40
0.0
 40
0.0
 10
1053.614353943096
 20
2006.520907265322
 30
0.0
 10
1053.614353943096
 20
2004.308629250937
 30
0.0
 10
1053.614353943096
 20
1999.916901764781
 30
0.0
 10
1053.614353943096
 20
1995.590831363856
 30
0.0
 10
1053.614353943096
 20
1993.4442104347
 30
0.0
  0
SPLINE
  5
26C
330
209
100
AcDbEntity
  8
P-SANR-FIXT
100
AcDbSpline
210
0.0
220
0.0
230
1.0
 70
    24
 71
     3
 72
     9
 73
     5
 74
     0
 42
0.000000001
 43
0.0000000001
 40
-1.0
 40
-1.0
 40
-1.0
 40
-1.0
 40
-0.5
 40
0.0
 40
0.0
 40
0.0
 40
0.0
 10
1054.76271607739
 20
1991.471563489042
 30
0.0
 10
1056.650965629837
 20
1990.381382101639
 30
0.0
 10
1060.398668283029
 20
1988.217644965976
 30
0.0
 10
1064.088778032816
 20
1986.087159108597
 30
0.0
 10
1065.919434681859
 20
1985.030228999478
 30
0.0
  0
ARC
  5
26D
330
209
100
AcDbEntity
  8
P-SANR-FIXT
100
AcDbCircle
 10
1067.114353943096
 20
1999.982558850011
 30
0.0
 40
14.99999999999976
100
AcDbArc
 50
325.4309033937054
 51
334.1580672368321
  0
ARC
  5
26E
330
209
100
AcDbEntity
  8
P-SANR-FIXT
100
AcDbCircle
 10
1067.114353943096
 20
1999.982558850011
 30
0.0
 40
14.9999999999998
100
AcDbArc
 50
25.84193276316591
 51
33.75303796715926
  0
ARC
  5
26F
330
209
100
AcDbEntity
  8
P-SANR-FIXT
100
AcDbCircle
 10
1067.114353943096
 20
1999.982558850011
 30
0.0
 40
14.99999999999983
100
AcDbArc
 50
86.24696203284006
 51
90.0
  0
ARC
  5
270
330
209
100
AcDbEntity
  8
P-SANR-FIXT
100
AcDbCircle
 10
1067.114353943096
 20
1999.982558850011
 30
0.0
 40
14.99999999999977
100
AcDbArc
 50
269.9999999999997
 51
274.5690966062923
  0
ARC
  5
271
330
209
100
AcDbEntity
  8
P-SANR-FIXT
100
AcDbCircle
 10
1067.114353943096
 20
1999.982558850011
 30
0.0
 40
14.99999999999982
100
AcDbArc
 50
146.2469620328395
 51
154.1580672368345
  0
ARC
  5
272
330
209
100
AcDbEntity
  8
P-SANR-FIXT
100
AcDbCircle
 10
1067.114353943096
 20
1999.982558850011
 30
0.0
 40
14.9999999999997
100
AcDbArc
 50
205.8419327631641
 51
214.5690966062921
  0
ARC
  5
273
330
209
100
AcDbEntity
  8
P-SANR-FIXT
100
AcDbCircle
 10
1067.114353943096
 20
1999.982558850011
 30
0.0
 40
14.99999999999977
100
AcDbArc
 50
90.0
 51
93.75303796715995
  0
ARC
  5
274
330
209
100
AcDbEntity
  8
P-SANR-FIXT
100
AcDbCircle
 10
1067.114353943096
 20
1999.982558850011
 30
0.0
 40
14.99999999999969
100
AcDbArc
 50
265.4309033937053
 51
269.9999999999997
  0
SPLINE
  5
275
330
209
100
AcDbEntity
  8
P-SANR-FIXT
100
AcDbSpline
210
0.0
220
0.0
230
1.0
 70
    24
 71
     3
 72
     8
 73
     4
 74
     0
 42
0.000000001
 43
0.0000000001
 40
-0.6139305285084895
 40
-0.6139305285084895
 40
-0.6139305285084895
 40
-0.6139305285084895
 40
-0.5298734578714324
 40
-0.5298734578714324
 40
-0.5298734578714324
 40
-0.5298734578714324
 10
1072.492294019403
 20
2012.412301427842
 30
0.0
 10
1072.8131552927
 20
2012.227052085331
 30
0.0
 10
1073.134070641307
 20
2012.041771522426
 30
0.0
 10
1073.455794553221
 20
2011.856024135278
 30
0.0
  0
SPLINE
  5
276
330
209
100
AcDbEntity
  8
P-SANR-FIXT
100
AcDbSpline
210
0.0
220
0.0
230
1.0
 70
    24
 71
     3
 72
     8
 73
     4
 74
     0
 42
0.000000001
 43
0.0000000001
 40
-0.424524816136616
 40
-0.424524816136616
 40
-0.424524816136616
 40
-0.424524816136616
 40
-0.3882284015014657
 40
-0.3882284015014657
 40
-0.3882284015014657
 40
-0.3882284015014657
 10
1074.667299100376
 20
2011.156561658853
 30
0.0
 10
1074.806617747837
 20
2011.076126000238
 30
0.0
 10
1074.94614472742
 20
2010.995570061017
 30
0.0
 10
1075.085845491429
 20
2010.91491378731
 30
0.0
  0
SPLINE
  5
277
330
209
100
AcDbEntity
  8
P-SANR-FIXT
100
AcDbSpline
210
0.0
220
0.0
230
1.0
 70
    24
 71
     3
 72
     9
 73
     5
 74
     0
 42
0.000000001
 43
0.0000000001
 40
-0.5769865759913328
 40
-0.5769865759913328
 40
-0.5769865759913328
 40
-0.5769865759913328
 40
-0.5
 40
-0.4154610022507672
 40
-0.4154610022507672
 40
-0.4154610022507672
 40
-0.4154610022507672
 10
1080.614353943096
 20
2001.037364342787
 30
0.0
 10
1080.614353943096
 20
2000.702565928306
 30
0.0
 10
1080.614353943096
 20
1999.999896639815
 30
0.0
 10
1080.614353943096
 20
1999.293047383584
 30
0.0
 10
1080.614353943096
 20
1998.92232190236
 30
0.0
  0
SPLINE
  5
278
330
209
100
AcDbEntity
  8
P-SANR-FIXT
100
AcDbSpline
210
0.0
220
0.0
230
1.0
 70
    24
 71
     3
 72
     9
 73
     5
 74
     0
 42
0.000000001
 43
0.0000000001
 40
-0.5769865759913352
 40
-0.5769865759913352
 40
-0.5769865759913352
 40
-0.5769865759913352
 40
-0.5
 40
-0.4154610022507637
 40
-0.4154610022507637
 40
-0.4154610022507637
 40
-0.4154610022507637
 10
1053.614353943096
 20
1998.927753357235
 30
0.0
 10
1053.614353943096
 20
1999.262551771715
 30
0.0
 10
1053.614353943096
 20
1999.965221060206
 30
0.0
 10
1053.614353943096
 20
2000.672070316437
 30
0.0
 10
1053.614353943096
 20
2001.042795797661
 30
0.0
  0
SPLINE
  5
279
330
209
100
AcDbEntity
  8
P-SANR-FIXT
100
AcDbSpline
210
0.0
220
0.0
230
1.0
 70
    24
 71
     3
 72
     8
 73
     4
 74
     0
 42
0.000000001
 43
0.0000000001
 40
-0.6045930590077264
 40
-0.6045930590077264
 40
-0.6045930590077264
 40
-0.6045930590077264
 40
-0.5680933684993966
 40
-0.5680933684993966
 40
-0.5680933684993966
 40
-0.5680933684993966
 10
1059.145794274213
 20
2010.9166065087
 30
0.0
 10
1059.285158396664
 20
2010.997068422312
 30
0.0
 10
1059.424527014843
 20
2011.077532931534
 30
0.0
 10
1059.563973383871
 20
2011.15804233023
 30
0.0
  0
SPLINE
  5
27A
330
209
100
AcDbEntity
  8
P-SANR-FIXT
100
AcDbSpline
210
0.0
220
0.0
230
1.0
 70
    24
 71
     3
 72
     8
 73
     4
 74
     0
 42
0.000000001
 43
0.0000000001
 40
-0.4625318705568594
 40
-0.4625318705568594
 40
-0.4625318705568594
 40
-0.4625318705568594
 40
-0.3807704689847655
 40
-0.3807704689847655
 40
-0.3807704689847655
 40
-0.3807704689847655
 10
1060.776444378871
 20
2011.858062785578
 30
0.0
 10
1061.089926533588
 20
2012.03905179199
 30
0.0
 10
1061.40439760053
 20
2012.220611747141
 30
0.0
 10
1061.71953131381
 20
2012.402554281334
 30
0.0
  0
LINE
  5
27B
330
209
100
AcDbEntity
  8
P-SANR-FIXT
100
AcDbLine
 10
1067.114353943096
 20
2024.482558850011
 30
0.0
 11
1079.114353943096
 21
2024.482558850011
 31
0.0
  0
LINE
  5
27C
330
209
100
AcDbEntity
  8
P-SANR-FIXT
100
AcDbLine
 10
1055.114353943096
 20
2024.482558850011
 30
0.0
 11
1067.114353943096
 21
2024.482558850011
 31
0.0
  0
ENDBLK
  5
27E
330
209
100
AcDbEntity
  8
0
100
AcDbBlockEnd
  0
ENDSEC
  0
SECTION
  2
ENTITIES
  0
INSERT
  5
14D
330
71
100
AcDbEntity
  8
P-SANR-FIXT
100
AcDbBlockReference
  2
Automatic flow rate regulator valve_Caleffi_121 DN15 - 1_2__-859151-Est - Idraulica
 10
0.0
 20
0.0
 30
0.0
1001
REVIT
1002
{
1070
     1
1000
863131
1002
}
1002
{
1070
     5
1000
859151
1002
}
1002
{
1070
     2
1000
-2001160
1002
}
  0
INSERT
  5
208
330
71
100
AcDbEntity
  8
P-SANR-FIXT
100
AcDbBlockReference
  2
Automatic flow rate regulator valve_Caleffi_121 DN15 - 1_2__-V1-Est - Idraulica
 10
0.0
 20
0.0
 30
0.0
1001
REVIT
1002
{
1070
     1
1000
863152
1002
}
1002
{
1070
     5
1000
859151
1002
}
1002
{
1070
     2
1000
-2001160
1002
}
  0
INSERT
  5
27F
330
71
100
AcDbEntity
  8
P-SANR-FIXT
100
AcDbBlockReference
  2
Automatic flow rate regulator valve_Caleffi_121 DN15 - 1_2__-V2-Est - Idraulica
 10
0.0
 20
0.0
 30
0.0
1001
REVIT
1002
{
1070
     1
1000
863172
1002
}
1002
{
1070
     5
1000
859151
1002
}
1002
{
1070
     2
1000
-2001160
1002
}
  0
ENDSEC
  0
SECTION
  2
OBJECTS
  0
DICTIONARY
  5
C
330
0
100
AcDbDictionary
281
     1
  3
ACAD_CIP_PREVIOUS_PRODUCT_INFO
350
7A
  3
ACAD_COLOR
350
63
  3
ACAD_DETAILVIEWSTYLE
350
6B
  3
ACAD_GROUP
350
D
  3
ACAD_IMAGE_VARS
350
7B
  3
ACAD_LAYOUT
350
62
  3
ACAD_MATERIAL
350
10
  3
ACAD_MLEADERSTYLE
350
66
  3
ACAD_MLINESTYLE
350
5F
  3
ACAD_PLOTSETTINGS
350
61
  3
ACAD_PLOTSTYLENAME
350
E
  3
ACAD_SCALELIST
350
42
  3
ACAD_SECTIONVIEWSTYLE
350
68
  3
ACAD_TABLESTYLE
350
64
  3
ACAD_VISUALSTYLE
350
29
  3
ACDB_RECOMPOSE_DATA
350
28A
  3
AcDbVariableDictionary
350
7C
  3
REVIT_DICTIONARY
350
281
  0
DICTIONARY
  5
286
330
71
100
AcDbDictionary
280
     1
281
     1
  3
ACAD_SORTENTS
360
287
  0
XRECORD
  5
7A
102
{ACAD_REACTORS
330
C
102
}
330
C
100
AcDbXrecord
280
     1
300
RVT
300
2013
300
RVT2013
  0
DICTIONARY
  5
63
102
{ACAD_REACTORS
330
C
102
}
330
C
100
AcDbDictionary
281
     1
  0
DICTIONARY
  5
6B
102
{ACAD_REACTORS
330
C
102
}
330
C
100
AcDbDictionary
281
     1
  3
Imperial24
350
6C
  0
DICTIONARY
  5
D
102
{ACAD_REACTORS
330
C
102
}
330
C
100
AcDbDictionary
281
     1
  0
RASTERVARIABLES
  5
7B
102
{ACAD_REACTORS
330
C
102
}
330
C
100
AcDbRasterVariables
 90
        0
 70
     0
 71
     1
 72
     1
  0
DICTIONARY
  5
62
102
{ACAD_REACTORS
330
C
102
}
330
C
100
AcDbDictionary
281
     1
  3
Layout1
350
70
  3
Layout2
350
78
  3
Model
350
74
  0
DICTIONARY
  5
10
102
{ACAD_REACTORS
330
C
102
}
330
C
100
AcDbDictionary
281
     1
  3
ByBlock
350
19
  3
ByLayer
350
11
  3
Global
350
21
  0
DICTIONARY
  5
66
102
{ACAD_REACTORS
330
C
102
}
330
C
100
AcDbDictionary
281
     1
  3
Standard
350
67
  0
DICTIONARY
  5
5F
102
{ACAD_REACTORS
330
C
102
}
330
C
100
AcDbDictionary
281
     1
  3
Standard
350
60
  0
DICTIONARY
  5
61
102
{ACAD_REACTORS
330
C
102
}
330
C
100
AcDbDictionary
281
     1
  0
ACDBDICTIONARYWDFLT
  5
E
102
{ACAD_REACTORS
330
C
102
}
330
C
100
AcDbDictionary
281
     1
  3
Normal
350
F
100
AcDbDictionaryWithDefault
340
F
  0
DICTIONARY
  5
42
102
{ACAD_REACTORS
330
C
102
}
330
C
100
AcDbDictionary
281
     1
  3
A0
350
43
  3
A1
350
44
  3
A2
350
45
  3
A3
350
46
  3
A4
350
47
  3
A5
350
48
  3
A6
350
49
  3
A7
350
4A
  3
A8
350
4B
  3
A9
350
4C
  3
B0
350
4D
  3
B1
350
4E
  3
B2
350
4F
  3
B3
350
50
  3
B4
350
51
  3
B5
350
52
  3
B6
350
53
  0
DICTIONARY
  5
68
102
{ACAD_REACTORS
330
C
102
}
330
C
100
AcDbDictionary
281
     1
  3
Imperial24
350
6A
  0
DICTIONARY
  5
64
102
{ACAD_REACTORS
330
C
102
}
330
C
100
AcDbDictionary
281
     1
  3
Standard
350
65
  0
DICTIONARY
  5
29
102
{ACAD_REACTORS
330
C
102
}
330
C
100
AcDbDictionary
281
     1
  3
2dWireframe
350
2F
  3
Basic
350
2E
  3
Brighten
350
35
  3
ColorChange
350
39
  3
Conceptual
350
32
  3
Dim
350
34
  3
EdgeColorOff
350
41
  3
Facepattern
350
38
  3
Flat
350
2A
  3
FlatWithEdges
350
2B
  3
Gouraud
350
2C
  3
GouraudWithEdges
350
2D
  3
Hidden
350
31
  3
JitterOff
350
3F
  3
Linepattern
350
37
  3
OverhangOff
350
40
  3
Realistic
350
33
  3
Shaded
350
3E
  3
Shaded with edges
350
3D
  3
Shades of Gray
350
3A
  3
Sketchy
350
3B
  3
Thicken
350
36
  3
Wireframe
350
30
  3
X-Ray
350
3C
  0
XRECORD
  5
28A
102
{ACAD_REACTORS
330
C
102
}
330
C
100
AcDbXrecord
280
     1
 90
        1
330
65
  0
DICTIONARY
  5
7C
102
{ACAD_REACTORS
330
C
102
}
330
C
100
AcDbDictionary
281
     1
  3
CANNOSCALE
350
81
  3
CMLEADERSTYLE
350
7E
  3
CTABLESTYLE
350
7D
  3
CVIEWDETAILSTYLE
350
7F
  3
CVIEWSECTIONSTYLE
350
80
  0
DICTIONARY
  5
281
102
{ACAD_REACTORS
330
C
102
}
330
C
100
AcDbDictionary
281
     1
  3
DRAWING_TOOL
350
285
  3
REVIT_CATEGORY_MAPPING
350
283
  3
REVIT_SUB_CATEGORY_MAPPING
350
284
  3
REVIT_TYPE_MAPPING
350
282
  0
SORTENTSTABLE
  5
287
102
{ACAD_REACTORS
330
286
102
}
330
286
100
AcDbSortentsTable
330
71
  0
ACDBDETAILVIEWSTYLE
  5
6C
102
{ACAD_REACTORS
330
6B
102
}
330
6B
100
AcDbModelDocViewStyle
 70
     0
  3
Imperial24
290
     1
100
AcDbDetailViewStyle
 70
     0
 71
     0
 90
        3
 71
     1
340
55
 62
   256
 40
0.24
340
0
 62
   256
 40
0.24
300

 40
0.36
280
     3
 71
     2
340
5D
 90
       25
 62
   256
 71
     3
340
55
 62
   256
 40
0.24
 90
        1
 40
0.75
 90
        1
300
%<\AcVar ViewType \f "%tc1">% %<\AcVar ViewDetailId>%\PSCALA %<\AcVar ViewScale \f "%sn">%
 71
     4
340
5D
 90
       25
 62
   256
340
5D
 90
       25
 62
   256
280
     0
  0
LAYOUT
  5
70
102
{ACAD_REACTORS
330
62
102
}
330
62
100
AcDbPlotSettings
  1

  2

  4

  6

 40
0.0
 41
0.0
 42
0.0
 43
0.0
 44
0.0
 45
0.0
 46
0.0
 47
0.0
 48
0.0
 49
0.0
140
0.0
141
0.0
142
1.0
143
1.0
 70
   688
 72
     0
 73
     0
 74
     5
  7

 75
    16
147
1.0
 76
     0
 77
     2
 78
   300
148
0.0
149
0.0
100
AcDbLayout
  1
Layout1
 70
     1
 71
     1
 10
0.0
 20
0.0
 11
12.0
 21
9.0
 12
0.0
 22
0.0
 32
0.0
 14
0.0
 24
0.0
 34
0.0
 15
0.0
 25
0.0
 35
0.0
146
0.0
 13
0.0
 23
0.0
 33
0.0
 16
1.0
 26
0.0
 36
0.0
 17
0.0
 27
1.0
 37
0.0
 76
     0
330
6D
  0
LAYOUT
  5
78
102
{ACAD_REACTORS
330
62
102
}
330
62
100
AcDbPlotSettings
  1

  2

  4

  6

 40
0.0
 41
0.0
 42
0.0
 43
0.0
 44
0.0
 45
0.0
 46
0.0
 47
0.0
 48
0.0
 49
0.0
140
0.0
141
0.0
142
1.0
143
1.0
 70
   688
 72
     0
 73
     0
 74
     5
  7

 75
    16
147
1.0
 76
     0
 77
     2
 78
   300
148
0.0
149
0.0
100
AcDbLayout
  1
Layout2
 70
     1
 71
     2
 10
0.0
 20
0.0
 11
12.0
 21
9.0
 12
0.0
 22
0.0
 32
0.0
 14
0.0
 24
0.0
 34
0.0
 15
0.0
 25
0.0
 35
0.0
146
0.0
 13
0.0
 23
0.0
 33
0.0
 16
1.0
 26
0.0
 36
0.0
 17
0.0
 27
1.0
 37
0.0
 76
     0
330
75
  0
LAYOUT
  5
74
102
{ACAD_REACTORS
330
62
102
}
330
62
100
AcDbPlotSettings
  1

  2

  4

  6

 40
0.0
 41
0.0
 42
0.0
 43
0.0
 44
0.0
 45
0.0
 46
0.0
 47
0.0
 48
0.0
 49
0.0
140
0.0
141
0.0
142
1.0
143
1.0
 70
  1712
 72
     0
 73
     0
 74
     0
  7

 75
     0
147
1.0
 76
     0
 77
     2
 78
   300
148
0.0
149
0.0
100
AcDbLayout
  1
Model
 70
     1
 71
     0
 10
0.0
 20
0.0
 11
12.0
 21
9.0
 12
0.0
 22
0.0
 32
0.0
 14
0.0
 24
0.0
 34
0.0
 15
0.0
 25
0.0
 35
0.0
146
0.0
 13
0.0
 23
0.0
 33
0.0
 16
1.0
 26
0.0
 36
0.0
 17
0.0
 27
1.0
 37
0.0
 76
     0
330
71
  0
MATERIAL
  5
19
102
{ACAD_XDICTIONARY
360
1A
102
}
102
{ACAD_REACTORS
330
10
102
}
330
10
100
AcDbMaterial
  1
ByBlock
 72
     0
 43
0.0208333333333333
 43
0.0
 43
0.0
 43
0.0
 43
0.0
 43
0.0208333333333333
 43
0.0
 43
0.0
 43
0.0
 43
0.0
 43
1.0
 43
0.0
 43
0.0
 43
0.0
 43
0.0
 43
1.0
 77
     0
 47
0.0208333333333333
 47
0.0
 47
0.0
 47
0.0
 47
0.0
 47
0.0208333333333333
 47
0.0
 47
0.0
 47
0.0
 47
0.0
 47
1.0
 47
0.0
 47
0.0
 47
0.0
 47
0.0
 47
1.0
171
     0
 49
0.0208333333333333
 49
0.0
 49
0.0
 49
0.0
 49
0.0
 49
0.0208333333333333
 49
0.0
 49
0.0
 49
0.0
 49
0.0
 49
1.0
 49
0.0
 49
0.0
 49
0.0
 49
0.0
 49
1.0
175
     0
142
0.0208333333333333
142
0.0
142
0.0
142
0.0
142
0.0
142
0.0208333333333333
142
0.0
142
0.0
142
0.0
142
0.0
142
1.0
142
0.0
142
0.0
142
0.0
142
0.0
142
1.0
179
     0
144
0.0208333333333333
144
0.0
144
0.0
144
0.0
144
0.0
144
0.0208333333333333
144
0.0
144
0.0
144
0.0
144
0.0
144
1.0
144
0.0
144
0.0
144
0.0
144
0.0
144
1.0
147
0.0208333333333333
147
0.0
147
0.0
147
0.0
147
0.0
147
0.0208333333333333
147
0.0
147
0.0
147
0.0
147
0.0
147
1.0
147
0.0
147
0.0
147
0.0
147
0.0
147
1.0
  0
MATERIAL
  5
11
102
{ACAD_XDICTIONARY
360
12
102
}
102
{ACAD_REACTORS
330
10
102
}
330
10
100
AcDbMaterial
  1
ByLayer
 72
     0
 43
0.0208333333333333
 43
0.0
 43
0.0
 43
0.0
 43
0.0
 43
0.0208333333333333
 43
0.0
 43
0.0
 43
0.0
 43
0.0
 43
1.0
 43
0.0
 43
0.0
 43
0.0
 43
0.0
 43
1.0
 77
     0
 47
0.0208333333333333
 47
0.0
 47
0.0
 47
0.0
 47
0.0
 47
0.0208333333333333
 47
0.0
 47
0.0
 47
0.0
 47
0.0
 47
1.0
 47
0.0
 47
0.0
 47
0.0
 47
0.0
 47
1.0
171
     0
 49
0.0208333333333333
 49
0.0
 49
0.0
 49
0.0
 49
0.0
 49
0.0208333333333333
 49
0.0
 49
0.0
 49
0.0
 49
0.0
 49
1.0
 49
0.0
 49
0.0
 49
0.0
 49
0.0
 49
1.0
175
     0
142
0.0208333333333333
142
0.0
142
0.0
142
0.0
142
0.0
142
0.0208333333333333
142
0.0
142
0.0
142
0.0
142
0.0
142
1.0
142
0.0
142
0.0
142
0.0
142
0.0
142
1.0
179
     0
144
0.0208333333333333
144
0.0
144
0.0
144
0.0
144
0.0
144
0.0208333333333333
144
0.0
144
0.0
144
0.0
144
0.0
144
1.0
144
0.0
144
0.0
144
0.0
144
0.0
144
1.0
147
0.0208333333333333
147
0.0
147
0.0
147
0.0
147
0.0
147
0.0208333333333333
147
0.0
147
0.0
147
0.0
147
0.0
147
1.0
147
0.0
147
0.0
147
0.0
147
0.0
147
1.0
  0
MATERIAL
  5
21
102
{ACAD_XDICTIONARY
360
22
102
}
102
{ACAD_REACTORS
330
10
102
}
330
10
100
AcDbMaterial
  1
Global
 72
     0
 43
0.0208333333333333
 43
0.0
 43
0.0
 43
0.0
 43
0.0
 43
0.0208333333333333
 43
0.0
 43
0.0
 43
0.0
 43
0.0
 43
1.0
 43
0.0
 43
0.0
 43
0.0
 43
0.0
 43
1.0
 77
     0
 47
0.0208333333333333
 47
0.0
 47
0.0
 47
0.0
 47
0.0
 47
0.0208333333333333
 47
0.0
 47
0.0
 47
0.0
 47
0.0
 47
1.0
 47
0.0
 47
0.0
 47
0.0
 47
0.0
 47
1.0
171
     0
 49
0.0208333333333333
 49
0.0
 49
0.0
 49
0.0
 49
0.0
 49
0.0208333333333333
 49
0.0
 49
0.0
 49
0.0
 49
0.0
 49
1.0
 49
0.0
 49
0.0
 49
0.0
 49
0.0
 49
1.0
175
     0
142
0.0208333333333333
142
0.0
142
0.0
142
0.0
142
0.0
142
0.0208333333333333
142
0.0
142
0.0
142
0.0
142
0.0
142
1.0
142
0.0
142
0.0
142
0.0
142
0.0
142
1.0
179
     0
144
0.0208333333333333
144
0.0
144
0.0
144
0.0
144
0.0
144
0.0208333333333333
144
0.0
144
0.0
144
0.0
144
0.0
144
1.0
144
0.0
144
0.0
144
0.0
144
0.0
144
1.0
147
0.0208333333333333
147
0.0
147
0.0
147
0.0
147
0.0
147
0.0208333333333333
147
0.0
147
0.0
147
0.0
147
0.0
147
1.0
147
0.0
147
0.0
147
0.0
147
0.0
147
1.0
  0
MLEADERSTYLE
  5
67
102
{ACAD_REACTORS
330
66
102
}
330
66
100
AcDbMLeaderStyle
179
     2
170
     2
171
     1
172
     0
 90
        2
 40
0.0
 41
0.0
173
     1
 91
-1056964608
340
5B
 92
       -2
290
     1
 42
0.09
291
     1
 43
0.36
  3
Standard
 44
0.18
300

342
55
174
     1
178
     6
175
     1
176
     0
 93
-1056964608
 45
0.18
292
     0
297
     0
 46
0.18
 94
-1056964608
 47
1.0
 49
1.0
140
1.0
293
     1
141
0.0
294
     1
177
     0
142
1.0
295
     1
296
     0
143
0.125
271
     0
272
     9
273
     9
298
     1
  0
MLINESTYLE
  5
60
102
{ACAD_REACTORS
330
5F
102
}
330
5F
100
AcDbMlineStyle
  2
STANDARD
 70
     0
  3

 62
   256
 51
90.0
 52
90.0
 71
     2
 49
0.5
 62
   256
  6
BYLAYER
 49
-0.5
 62
   256
  6
BYLAYER
  0
ACDBPLACEHOLDER
  5
F
102
{ACAD_REACTORS
330
E
102
}
330
E
  0
SCALE
  5
43
102
{ACAD_REACTORS
330
42
102
}
330
42
100
AcDbScale
 70
     0
300
1:1
140
1.0
141
1.0
290
     1
  0
SCALE
  5
44
102
{ACAD_REACTORS
330
42
102
}
330
42
100
AcDbScale
 70
     0
300
1/128" = 1'-0"
140
0.0078125
141
12.0
290
     0
  0
SCALE
  5
45
102
{ACAD_REACTORS
330
42
102
}
330
42
100
AcDbScale
 70
     0
300
1/64" = 1'-0"
140
0.015625
141
12.0
290
     0
  0
SCALE
  5
46
102
{ACAD_REACTORS
330
42
102
}
330
42
100
AcDbScale
 70
     0
300
1/32" = 1'-0"
140
0.03125
141
12.0
290
     0
  0
SCALE
  5
47
102
{ACAD_REACTORS
330
42
102
}
330
42
100
AcDbScale
 70
     0
300
1/16" = 1'-0"
140
0.0625
141
12.0
290
     0
  0
SCALE
  5
48
102
{ACAD_REACTORS
330
42
102
}
330
42
100
AcDbScale
 70
     0
300
3/32" = 1'-0"
140
0.09375
141
12.0
290
     0
  0
SCALE
  5
49
102
{ACAD_REACTORS
330
42
102
}
330
42
100
AcDbScale
 70
     0
300
1/8" = 1'-0"
140
0.125
141
12.0
290
     0
  0
SCALE
  5
4A
102
{ACAD_REACTORS
330
42
102
}
330
42
100
AcDbScale
 70
     0
300
3/16" = 1'-0"
140
0.1875
141
12.0
290
     0
  0
SCALE
  5
4B
102
{ACAD_REACTORS
330
42
102
}
330
42
100
AcDbScale
 70
     0
300
1/4" = 1'-0"
140
0.25
141
12.0
290
     0
  0
SCALE
  5
4C
102
{ACAD_REACTORS
330
42
102
}
330
42
100
AcDbScale
 70
     0
300
3/8" = 1'-0"
140
0.375
141
12.0
290
     0
  0
SCALE
  5
4D
102
{ACAD_REACTORS
330
42
102
}
330
42
100
AcDbScale
 70
     0
300
1/2" = 1'-0"
140
0.5
141
12.0
290
     0
  0
SCALE
  5
4E
102
{ACAD_REACTORS
330
42
102
}
330
42
100
AcDbScale
 70
     0
300
3/4" = 1'-0"
140
0.75
141
12.0
290
     0
  0
SCALE
  5
4F
102
{ACAD_REACTORS
330
42
102
}
330
42
100
AcDbScale
 70
     0
300
1" = 1'-0"
140
1.0
141
12.0
290
     0
  0
SCALE
  5
50
102
{ACAD_REACTORS
330
42
102
}
330
42
100
AcDbScale
 70
     0
300
1-1/2" = 1'-0"
140
1.5
141
12.0
290
     0
  0
SCALE
  5
51
102
{ACAD_REACTORS
330
42
102
}
330
42
100
AcDbScale
 70
     0
300
3" = 1'-0"
140
3.0
141
12.0
290
     0
  0
SCALE
  5
52
102
{ACAD_REACTORS
330
42
102
}
330
42
100
AcDbScale
 70
     0
300
6" = 1'-0"
140
6.0
141
12.0
290
     0
  0
SCALE
  5
53
102
{ACAD_REACTORS
330
42
102
}
330
42
100
AcDbScale
 70
     0
300
1'-0" = 1'-0"
140
12.0
141
12.0
290
     0
  0
ACDBSECTIONVIEWSTYLE
  5
6A
102
{ACAD_REACTORS
330
68
102
}
330
68
100
AcDbModelDocViewStyle
 70
     0
  3
Imperial24
290
     1
100
AcDbSectionViewStyle
 70
     0
 71
     0
 90
       78
 71
     1
340
55
 62
   256
 40
0.24
340
0
340
0
 62
   256
 40
0.24
300
I, O, Q, S, X, Z
 40
0.48
 90
        3
 40
0.18
 90
        1
 71
     2
340
69
 90
       25
 62
   256
340
5D
 90
       50
 62
   256
 40
0.24
 40
0.0
 40
0.24
 71
     3
340
55
 62
   256
 40
0.24
 90
        1
 40
0.75
 90
        1
300
%<\AcVar ViewType \f "%tc1">% %<\AcVar ViewSectionStartId>%-%<\AcVar ViewSectionEndId>%\PSCALA %<\AcVar ViewScale \f "%sn">%
 71
     4
 62
   256
 62
   257
300
ANSI31
 40
1.0
 90
        0
290
     0
290
     0
 90
        6
 40
0.0
 40
1.570796326794896
 40
0.2617993877991494
 40
1.308996938995747
 40
-0.2617993877991494
 40
1.832595714594046
  0
TABLESTYLE
  5
65
102
{ACAD_XDICTIONARY
360
288
102
}
102
{ACAD_REACTORS
330
64
102
}
330
64
100
AcDbTableStyle
280
     0
  3
Standard
 70
     0
 71
     0
 40
0.06
 41
0.06
280
     0
281
     0
  7
Standard
140
0.18
170
     2
 62
     0
 63
     7
283
     0
 90
      512
 91
        0
  1

274
    -2
284
     1
 64
     0
275
    -2
285
     1
 65
     0
276
    -2
286
     1
 66
     0
277
    -2
287
     1
 67
     0
278
    -2
288
     1
 68
     0
279
    -2
289
     1
 69
     0
  7
Standard
140
0.25
170
     5
 62
     0
 63
     7
283
     0
 90
      512
 91
        0
  1

274
    -2
284
     1
 64
     0
275
    -2
285
     1
 65
     0
276
    -2
286
     1
 66
     0
277
    -2
287
     1
 67
     0
278
    -2
288
     1
 68
     0
279
    -2
289
     1
 69
     0
  7
Standard
140
0.18
170
     5
 62
     0
 63
     7
283
     0
 90
      512
 91
        0
  1

274
    -2
284
     1
 64
     0
275
    -2
285
     1
 65
     0
276
    -2
286
     1
 66
     0
277
    -2
287
     1
 67
     0
278
    -2
288
     1
 68
     0
279
    -2
289
     1
 69
     0
  0
VISUALSTYLE
  5
2F
102
{ACAD_REACTORS
330
29
102
}
330
29
100
AcDbVisualStyle
  2
2dWireframe
 70
     4
177
     3
291
     0
 70
    58
 90
        0
176
     1
 90
        2
176
     1
 90
        0
176
     1
 90
        0
176
     1
 40
0.6
176
     1
 40
30.0
176
     1
 62
     7
420
 16777215
176
     1
 90
        1
176
     1
 90
        4
176
     1
 62
     7
176
     1
 62
   257
176
     1
 90
        1
176
     1
 90
        1
176
     1
 40
1.0
176
     1
 90
        0
176
     1
 62
   257
176
     1
 40
1.0
176
     1
 90
        1
176
     1
 90
        6
176
     1
 90
        2
176
     1
 62
     7
176
     1
 90
        5
176
     1
 90
        0
176
     1
 90
        0
176
     1
290
     0
176
     1
 90
        1
176
     1
 40
0.0
176
     1
 90
        0
176
     1
290
     1
176
     1
290
     1
176
     1
290
     0
176
     1
290
     0
176
     1
290
     0
176
     1
290
     0
176
     1
290
     0
176
     1
290
     0
176
     1
290
     0
176
     1
 90
       50
176
     1
 40
0.0
176
     1
 40
1.0
176
     1
 90
        0
176
     1
 62
    18
420
        0
176
     1
 90
       50
176
     1
 90
        3
176
     1
 62
     5
420
      255
176
     1
290
     0
176
     1
 90
       50
176
     1
 90
       50
176
     1
 90
       50
176
     1
290
     0
176
     1
 90
       50
176
     1
 62
   256
176
     0
 40
1.0
176
     0
 90
        2
176
     1
  1
strokes_ogs.tif
176
     1
290
     0
176
     1
 40
1.0
176
     1
 40
1.0
176
     1
  0
VISUALSTYLE
  5
2E
102
{ACAD_REACTORS
330
29
102
}
330
29
100
AcDbVisualStyle
  2
Basic
 70
     7
177
     3
291
     1
 70
    58
 90
        1
176
     1
 90
        0
176
     1
 90
        1
176
     1
 90
        0
176
     1
 40
0.6
176
     1
 40
30.0
176
     1
 62
     7
420
 16777215
176
     1
 90
        0
176
     1
 90
        4
176
     1
 62
     7
176
     1
 62
   257
176
     1
 90
        1
176
     1
 90
        1
176
     1
 40
1.0
176
     1
 90
        8
176
     1
 62
     7
176
     1
 40
1.0
176
     1
 90
        1
176
     1
 90
        6
176
     1
 90
        2
176
     1
 62
     7
176
     1
 90
        5
176
     1
 90
        0
176
     1
 90
        0
176
     1
290
     0
176
     1
 90
        1
176
     1
 40
0.0
176
     1
 90
        0
176
     1
290
     0
176
     1
290
     1
176
     1
290
     1
176
     1
290
     0
176
     1
290
     0
176
     1
290
     0
176
     1
290
     0
176
     1
290
     0
176
     1
290
     0
176
     1
 90
       50
176
     1
 40
0.0
176
     1
 40
1.0
176
     1
 90
        0
176
     1
 62
    18
420
        0
176
     1
 90
       50
176
     1
 90
        3
176
     1
 62
     5
420
      255
176
     1
290
     0
176
     1
 90
       50
176
     1
 90
       50
176
     1
 90
       50
176
     1
290
     0
176
     1
 90
       50
176
     1
 62
   256
176
     0
 40
1.0
176
     0
 90
        2
176
     1
  1
strokes_ogs.tif
176
     1
290
     0
176
     1
 40
1.0
176
     1
 40
1.0
176
     1
  0
VISUALSTYLE
  5
35
102
{ACAD_REACTORS
330
29
102
}
330
29
100
AcDbVisualStyle
  2
Brighten
 70
    12
177
     3
291
     1
 70
    58
 90
        2
176
     1
 90
        2
176
     1
 90
        0
176
     1
 90
        0
176
     1
 40
0.6
176
     1
 40
30.0
176
     1
 62
     7
420
 16777215
176
     1
 90
        1
176
     1
 90
        4
176
     1
 62
     7
176
     1
 62
   257
176
     1
 90
        1
176
     1
 90
        1
176
     1
 40
1.0
176
     1
 90
        8
176
     1
 62
     7
176
     1
 40
1.0
176
     1
 90
        1
176
     1
 90
        6
176
     1
 90
        2
176
     1
 62
     7
176
     1
 90
        5
176
     1
 90
        0
176
     1
 90
        0
176
     1
290
     0
176
     1
 90
        1
176
     1
 40
50.0
176
     1
 90
        0
176
     1
290
     0
176
     1
290
     1
176
     1
290
     1
176
     1
290
     0
176
     1
290
     0
176
     1
290
     0
176
     1
290
     0
176
     1
290
     0
176
     1
290
     0
176
     1
 90
       50
176
     1
 40
0.0
176
     1
 40
1.0
176
     1
 90
        0
176
     1
 62
    18
420
        0
176
     1
 90
       50
176
     1
 90
        3
176
     1
 62
     5
420
      255
176
     1
290
     0
176
     1
 90
       50
176
     1
 90
       50
176
     1
 90
       50
176
     1
290
     0
176
     1
 90
       50
176
     1
 62
   256
176
     0
 40
1.0
176
     0
 90
        2
176
     1
  1
strokes_ogs.tif
176
     1
290
     0
176
     1
 40
1.0
176
     1
 40
1.0
176
     1
  0
VISUALSTYLE
  5
39
102
{ACAD_REACTORS
330
29
102
}
330
29
100
AcDbVisualStyle
  2
ColorChange
 70
    16
177
     3
291
     1
 70
    58
 90
        2
176
     1
 90
        2
176
     1
 90
        3
176
     1
 90
        0
176
     1
 40
0.6
176
     1
 40
30.0
176
     1
 62
     8
420
  8421504
176
     1
 90
        1
176
     1
 90
        4
176
     1
 62
     7
176
     1
 62
   257
176
     1
 90
        1
176
     1
 90
        1
176
     1
 40
1.0
176
     1
 90
        8
176
     1
 62
     8
420
  8421504
176
     1
 40
1.0
176
     1
 90
        1
176
     1
 90
        6
176
     1
 90
        2
176
     1
 62
     7
176
     1
 90
        5
176
     1
 90
        0
176
     1
 90
        0
176
     1
290
     0
176
     1
 90
        1
176
     1
 40
0.0
176
     1
 90
        0
176
     1
290
     0
176
     1
290
     1
176
     1
290
     1
176
     1
290
     0
176
     1
290
     0
176
     1
290
     0
176
     1
290
     0
176
     1
290
     0
176
     1
290
     0
176
     1
 90
       50
176
     1
 40
0.0
176
     1
 40
1.0
176
     1
 90
        0
176
     1
 62
    18
420
        0
176
     1
 90
       50
176
     1
 90
        3
176
     1
 62
     5
420
      255
176
     1
290
     0
176
     1
 90
       50
176
     1
 90
       50
176
     1
 90
       50
176
     1
290
     0
176
     1
 90
       50
176
     1
 62
   256
176
     0
 40
1.0
176
     0
 90
        2
176
     1
  1
strokes_ogs.tif
176
     1
290
     0
176
     1
 40
1.0
176
     1
 40
1.0
176
     1
  0
VISUALSTYLE
  5
32
102
{ACAD_REACTORS
330
29
102
}
330
29
100
AcDbVisualStyle
  2
Conceptual
 70
     9
177
     3
291
     0
 70
    58
 90
        3
176
     1
 90
        2
176
     1
 90
        0
176
     1
 90
        0
176
     1
 40
0.6
176
     1
 40
30.0
176
     1
 62
     7
420
 16777215
176
     1
 90
        2
176
     1
 90
        2
176
     1
 62
     7
176
     1
 62
   257
176
     1
 90
        1
176
     1
 90
        1
176
     1
 40
179.0
176
     1
 90
        8
176
     1
 62
     7
176
     1
 40
1.0
176
     1
 90
        1
176
     1
 90
        6
176
     1
 90
        2
176
     1
 62
     7
176
     1
 90
        3
176
     1
 90
        0
176
     1
 90
        0
176
     1
290
     0
176
     1
 90
        1
176
     1
 40
0.0
176
     1
 90
        0
176
     1
290
     0
176
     1
290
     1
176
     1
290
     1
176
     1
290
     0
176
     1
290
     0
176
     1
290
     0
176
     1
290
     0
176
     1
290
     0
176
     1
290
     0
176
     1
 90
       50
176
     1
 40
0.0
176
     1
 40
1.0
176
     1
 90
        0
176
     1
 62
    18
420
        0
176
     1
 90
       50
176
     1
 90
        3
176
     1
 62
     5
420
      255
176
     1
290
     0
176
     1
 90
       50
176
     1
 90
       50
176
     1
 90
       50
176
     1
290
     0
176
     1
 90
       50
176
     1
 62
   256
176
     0
 40
1.0
176
     0
 90
        2
176
     1
  1
strokes_ogs.tif
176
     1
290
     0
176
     1
 40
1.0
176
     1
 40
1.0
176
     1
  0
VISUALSTYLE
  5
34
102
{ACAD_REACTORS
330
29
102
}
330
29
100
AcDbVisualStyle
  2
Dim
 70
    11
177
     3
291
     1
 70
    58
 90
        2
176
     1
 90
        2
176
     1
 90
        0
176
     1
 90
        0
176
     1
 40
0.6
176
     1
 40
30.0
176
     1
 62
     7
420
 16777215
176
     1
 90
        1
176
     1
 90
        4
176
     1
 62
     7
176
     1
 62
   257
176
     1
 90
        1
176
     1
 90
        1
176
     1
 40
1.0
176
     1
 90
        8
176
     1
 62
     7
176
     1
 40
1.0
176
     1
 90
        1
176
     1
 90
        6
176
     1
 90
        2
176
     1
 62
     7
176
     1
 90
        5
176
     1
 90
        0
176
     1
 90
        0
176
     1
290
     0
176
     1
 90
        1
176
     1
 40
-50.0
176
     1
 90
        0
176
     1
290
     0
176
     1
290
     1
176
     1
290
     1
176
     1
290
     0
176
     1
290
     0
176
     1
290
     0
176
     1
290
     0
176
     1
290
     0
176
     1
290
     0
176
     1
 90
       50
176
     1
 40
0.0
176
     1
 40
1.0
176
     1
 90
        0
176
     1
 62
    18
420
        0
176
     1
 90
       50
176
     1
 90
        3
176
     1
 62
     5
420
      255
176
     1
290
     0
176
     1
 90
       50
176
     1
 90
       50
176
     1
 90
       50
176
     1
290
     0
176
     1
 90
       50
176
     1
 62
   256
176
     0
 40
1.0
176
     0
 90
        2
176
     1
  1
strokes_ogs.tif
176
     1
290
     0
176
     1
 40
1.0
176
     1
 40
1.0
176
     1
  0
VISUALSTYLE
  5
41
102
{ACAD_REACTORS
330
29
102
}
330
29
100
AcDbVisualStyle
  2
EdgeColorOff
 70
    22
177
     3
291
     1
 70
    58
 90
        2
176
     0
 90
        2
176
     0
 90
        0
176
     0
 90
        0
176
     0
 40
0.6
176
     0
 40
30.0
176
     0
 62
     7
420
 16777215
176
     0
 90
        1
176
     0
 90
        4
176
     0
 62
     7
176
     0
 62
   257
176
     0
 90
        1
176
     0
 90
        1
176
     0
 40
1.0
176
     0
 90
        8
176
     2
 62
     7
176
     0
 40
1.0
176
     0
 90
        1
176
     0
 90
        6
176
     0
 90
        2
176
     0
 62
     7
176
     0
 90
        5
176
     0
 90
        0
176
     0
 90
        0
176
     0
290
     0
176
     0
 90
        1
176
     0
 40
0.0
176
     0
 90
        0
176
     0
290
     0
176
     0
290
     1
176
     0
290
     1
176
     0
290
     0
176
     0
290
     0
176
     0
290
     0
176
     0
290
     0
176
     0
290
     0
176
     0
290
     0
176
     0
 90
       50
176
     0
 40
0.0
176
     0
 40
1.0
176
     0
 90
        0
176
     0
 62
    18
420
        0
176
     0
 90
       50
176
     0
 90
        3
176
     0
 62
     5
420
      255
176
     0
290
     0
176
     0
 90
       50
176
     0
 90
       50
176
     0
 90
       50
176
     0
290
     0
176
     0
 90
       50
176
     0
 62
   256
176
     0
 40
1.0
176
     0
 90
        2
176
     0
  1
strokes_ogs.tif
176
     0
290
     0
176
     0
 40
1.0
176
     0
 40
1.0
176
     0
  0
VISUALSTYLE
  5
38
102
{ACAD_REACTORS
330
29
102
}
330
29
100
AcDbVisualStyle
  2
Facepattern
 70
    15
177
     3
291
     1
 70
    58
 90
        2
176
     1
 90
        2
176
     1
 90
        0
176
     1
 90
        0
176
     1
 40
0.6
176
     1
 40
30.0
176
     1
 62
     7
420
 16777215
176
     1
 90
        1
176
     1
 90
        4
176
     1
 62
     7
176
     1
 62
   257
176
     1
 90
        1
176
     1
 90
        1
176
     1
 40
1.0
176
     1
 90
        8
176
     1
 62
     7
176
     1
 40
1.0
176
     1
 90
        1
176
     1
 90
        6
176
     1
 90
        2
176
     1
 62
     7
176
     1
 90
        5
176
     1
 90
        0
176
     1
 90
        0
176
     1
290
     0
176
     1
 90
        1
176
     1
 40
0.0
176
     1
 90
        0
176
     1
290
     0
176
     1
290
     1
176
     1
290
     1
176
     1
290
     0
176
     1
290
     0
176
     1
290
     0
176
     1
290
     0
176
     1
290
     0
176
     1
290
     0
176
     1
 90
       50
176
     1
 40
0.0
176
     1
 40
1.0
176
     1
 90
        0
176
     1
 62
    18
420
        0
176
     1
 90
       50
176
     1
 90
        3
176
     1
 62
     5
420
      255
176
     1
290
     0
176
     1
 90
       50
176
     1
 90
       50
176
     1
 90
       50
176
     1
290
     0
176
     1
 90
       50
176
     1
 62
   256
176
     0
 40
1.0
176
     0
 90
        2
176
     1
  1
strokes_ogs.tif
176
     1
290
     0
176
     1
 40
1.0
176
     1
 40
1.0
176
     1
  0
VISUALSTYLE
  5
2A
102
{ACAD_REACTORS
330
29
102
}
330
29
100
AcDbVisualStyle
  2
Flat
 70
     0
177
     3
291
     1
 70
    58
 90
        2
176
     1
 90
        1
176
     1
 90
        1
176
     1
 90
        2
176
     1
 40
0.6
176
     1
 40
30.0
176
     1
 62
     7
420
 16777215
176
     1
 90
        0
176
     1
 90
        0
176
     1
 62
     7
176
     1
 62
   257
176
     1
 90
        1
176
     1
 90
        1
176
     1
 40
1.0
176
     1
 90
        8
176
     1
 62
     7
176
     1
 40
1.0
176
     1
 90
        1
176
     1
 90
        6
176
     1
 90
        2
176
     1
 62
     7
176
     1
 90
        5
176
     1
 90
        0
176
     1
 90
        0
176
     1
290
     0
176
     1
 90
       13
176
     1
 40
0.0
176
     1
 90
        0
176
     1
290
     0
176
     1
290
     1
176
     1
290
     1
176
     1
290
     0
176
     1
290
     0
176
     1
290
     0
176
     1
290
     0
176
     1
290
     0
176
     1
290
     0
176
     1
 90
       50
176
     1
 40
0.0
176
     1
 40
1.0
176
     1
 90
        0
176
     1
 62
    18
420
        0
176
     1
 90
       50
176
     1
 90
        3
176
     1
 62
     5
420
      255
176
     1
290
     0
176
     1
 90
       50
176
     1
 90
       50
176
     1
 90
       50
176
     1
290
     0
176
     1
 90
       50
176
     1
 62
   256
176
     0
 40
1.0
176
     0
 90
        2
176
     1
  1
strokes_ogs.tif
176
     1
290
     0
176
     1
 40
1.0
176
     1
 40
1.0
176
     1
  0
VISUALSTYLE
  5
2B
102
{ACAD_REACTORS
330
29
102
}
330
29
100
AcDbVisualStyle
  2
FlatWithEdges
 70
     1
177
     3
291
     1
 70
    58
 90
        2
176
     1
 90
        1
176
     1
 90
        1
176
     1
 90
        2
176
     1
 40
0.6
176
     1
 40
30.0
176
     1
 62
     7
420
 16777215
176
     1
 90
        1
176
     1
 90
        0
176
     1
 62
     7
176
     1
 62
   257
176
     1
 90
        1
176
     1
 90
        1
176
     1
 40
1.0
176
     1
 90
        0
176
     1
 62
   257
176
     1
 40
1.0
176
     1
 90
        1
176
     1
 90
        6
176
     1
 90
        2
176
     1
 62
     7
176
     1
 90
        5
176
     1
 90
        0
176
     1
 90
        0
176
     1
290
     0
176
     1
 90
       13
176
     1
 40
0.0
176
     1
 90
        0
176
     1
290
     0
176
     1
290
     1
176
     1
290
     1
176
     1
290
     0
176
     1
290
     0
176
     1
290
     0
176
     1
290
     0
176
     1
290
     0
176
     1
290
     0
176
     1
 90
       50
176
     1
 40
0.0
176
     1
 40
1.0
176
     1
 90
        0
176
     1
 62
    18
420
        0
176
     1
 90
       50
176
     1
 90
        3
176
     1
 62
     5
420
      255
176
     1
290
     0
176
     1
 90
       50
176
     1
 90
       50
176
     1
 90
       50
176
     1
290
     0
176
     1
 90
       50
176
     1
 62
   256
176
     0
 40
1.0
176
     0
 90
        2
176
     1
  1
strokes_ogs.tif
176
     1
290
     0
176
     1
 40
1.0
176
     1
 40
1.0
176
     1
  0
VISUALSTYLE
  5
2C
102
{ACAD_REACTORS
330
29
102
}
330
29
100
AcDbVisualStyle
  2
Gouraud
 70
     2
177
     3
291
     1
 70
    58
 90
        2
176
     1
 90
        2
176
     1
 90
        1
176
     1
 90
        2
176
     1
 40
0.6
176
     1
 40
30.0
176
     1
 62
     7
420
 16777215
176
     1
 90
        0
176
     1
 90
        0
176
     1
 62
     7
176
     1
 62
   257
176
     1
 90
        1
176
     1
 90
        1
176
     1
 40
1.0
176
     1
 90
        0
176
     1
 62
     7
176
     1
 40
1.0
176
     1
 90
        1
176
     1
 90
        6
176
     1
 90
        2
176
     1
 62
     7
176
     1
 90
        5
176
     1
 90
        0
176
     1
 90
        0
176
     1
290
     0
176
     1
 90
       13
176
     1
 40
0.0
176
     1
 90
        0
176
     1
290
     0
176
     1
290
     1
176
     1
290
     1
176
     1
290
     0
176
     1
290
     0
176
     1
290
     0
176
     1
290
     0
176
     1
290
     0
176
     1
290
     0
176
     1
 90
       50
176
     1
 40
0.0
176
     1
 40
1.0
176
     1
 90
        0
176
     1
 62
    18
420
        0
176
     1
 90
       50
176
     1
 90
        3
176
     1
 62
     5
420
      255
176
     1
290
     0
176
     1
 90
       50
176
     1
 90
       50
176
     1
 90
       50
176
     1
290
     0
176
     1
 90
       50
176
     1
 62
   256
176
     0
 40
1.0
176
     0
 90
        2
176
     1
  1
strokes_ogs.tif
176
     1
290
     0
176
     1
 40
1.0
176
     1
 40
1.0
176
     1
  0
VISUALSTYLE
  5
2D
102
{ACAD_REACTORS
330
29
102
}
330
29
100
AcDbVisualStyle
  2
GouraudWithEdges
 70
     3
177
     3
291
     1
 70
    58
 90
        2
176
     1
 90
        2
176
     1
 90
        1
176
     1
 90
        2
176
     1
 40
0.6
176
     1
 40
30.0
176
     1
 62
     7
420
 16777215
176
     1
 90
        1
176
     1
 90
        0
176
     1
 62
     7
176
     1
 62
   257
176
     1
 90
        1
176
     1
 90
        1
176
     1
 40
1.0
176
     1
 90
        0
176
     1
 62
   257
176
     1
 40
1.0
176
     1
 90
        1
176
     1
 90
        6
176
     1
 90
        2
176
     1
 62
     7
176
     1
 90
        5
176
     1
 90
        0
176
     1
 90
        0
176
     1
290
     0
176
     1
 90
       13
176
     1
 40
0.0
176
     1
 90
        0
176
     1
290
     0
176
     1
290
     1
176
     1
290
     1
176
     1
290
     0
176
     1
290
     0
176
     1
290
     0
176
     1
290
     0
176
     1
290
     0
176
     1
290
     0
176
     1
 90
       50
176
     1
 40
0.0
176
     1
 40
1.0
176
     1
 90
        0
176
     1
 62
    18
420
        0
176
     1
 90
       50
176
     1
 90
        3
176
     1
 62
     5
420
      255
176
     1
290
     0
176
     1
 90
       50
176
     1
 90
       50
176
     1
 90
       50
176
     1
290
     0
176
     1
 90
       50
176
     1
 62
   256
176
     0
 40
1.0
176
     0
 90
        2
176
     1
  1
strokes_ogs.tif
176
     1
290
     0
176
     1
 40
1.0
176
     1
 40
1.0
176
     1
  0
VISUALSTYLE
  5
31
102
{ACAD_REACTORS
330
29
102
}
330
29
100
AcDbVisualStyle
  2
Hidden
 70
     6
177
     3
291
     0
 70
    58
 90
        1
176
     1
 90
        2
176
     1
 90
        2
176
     1
 90
        0
176
     1
 40
0.6
176
     1
 40
30.0
176
     1
 62
     7
420
 16777215
176
     1
 90
        2
176
     1
 90
        2
176
     1
 62
     7
176
     1
 62
   257
176
     1
 90
        2
176
     1
 90
        1
176
     1
 40
40.0
176
     1
 90
        0
176
     1
 62
   257
176
     1
 40
1.0
176
     1
 90
        1
176
     1
 90
        6
176
     1
 90
        2
176
     1
 62
     7
176
     1
 90
        3
176
     1
 90
        0
176
     1
 90
        0
176
     1
290
     0
176
     1
 90
        1
176
     1
 40
0.0
176
     1
 90
        0
176
     1
290
     0
176
     1
290
     1
176
     1
290
     1
176
     1
290
     0
176
     1
290
     0
176
     1
290
     0
176
     1
290
     0
176
     1
290
     0
176
     1
290
     0
176
     1
 90
       50
176
     1
 40
0.0
176
     1
 40
1.0
176
     1
 90
        0
176
     1
 62
    18
420
        0
176
     1
 90
       50
176
     1
 90
        3
176
     1
 62
     5
420
      255
176
     1
290
     0
176
     1
 90
       50
176
     1
 90
       50
176
     1
 90
       50
176
     1
290
     0
176
     1
 90
       50
176
     1
 62
   256
176
     0
 40
1.0
176
     0
 90
        2
176
     1
  1
strokes_ogs.tif
176
     1
290
     0
176
     1
 40
1.0
176
     1
 40
1.0
176
     1
  0
VISUALSTYLE
  5
3F
102
{ACAD_REACTORS
330
29
102
}
330
29
100
AcDbVisualStyle
  2
JitterOff
 70
    20
177
     3
291
     1
 70
    58
 90
        2
176
     0
 90
        2
176
     0
 90
        0
176
     0
 90
        0
176
     0
 40
0.6
176
     0
 40
30.0
176
     0
 62
     7
420
 16777215
176
     0
 90
        1
176
     0
 90
        4
176
     0
 62
     7
176
     0
 62
   257
176
     0
 90
        1
176
     0
 90
        1
176
     0
 40
1.0
176
     0
 90
       10
176
     2
 62
     7
176
     0
 40
1.0
176
     0
 90
        1
176
     0
 90
        6
176
     0
 90
        2
176
     0
 62
     7
176
     0
 90
        5
176
     0
 90
        0
176
     0
 90
        0
176
     0
290
     0
176
     0
 90
        1
176
     0
 40
0.0
176
     0
 90
        0
176
     0
290
     0
176
     0
290
     1
176
     0
290
     1
176
     0
290
     0
176
     0
290
     0
176
     0
290
     0
176
     0
290
     0
176
     0
290
     0
176
     0
290
     0
176
     0
 90
       50
176
     0
 40
0.0
176
     0
 40
1.0
176
     0
 90
        0
176
     0
 62
    18
420
        0
176
     0
 90
       50
176
     0
 90
        3
176
     0
 62
     5
420
      255
176
     0
290
     0
176
     0
 90
       50
176
     0
 90
       50
176
     0
 90
       50
176
     0
290
     0
176
     0
 90
       50
176
     0
 62
   256
176
     0
 40
1.0
176
     0
 90
        2
176
     0
  1
strokes_ogs.tif
176
     0
290
     0
176
     0
 40
1.0
176
     0
 40
1.0
176
     0
  0
VISUALSTYLE
  5
37
102
{ACAD_REACTORS
330
29
102
}
330
29
100
AcDbVisualStyle
  2
Linepattern
 70
    14
177
     3
291
     1
 70
    58
 90
        2
176
     1
 90
        2
176
     1
 90
        0
176
     1
 90
        0
176
     1
 40
0.6
176
     1
 40
30.0
176
     1
 62
     7
420
 16777215
176
     1
 90
        1
176
     1
 90
        4
176
     1
 62
     7
176
     1
 62
   257
176
     1
 90
        7
176
     1
 90
        7
176
     1
 40
1.0
176
     1
 90
        8
176
     1
 62
     7
176
     1
 40
1.0
176
     1
 90
        1
176
     1
 90
        6
176
     1
 90
        2
176
     1
 62
     7
176
     1
 90
        5
176
     1
 90
        0
176
     1
 90
        0
176
     1
290
     0
176
     1
 90
        1
176
     1
 40
0.0
176
     1
 90
        0
176
     1
290
     0
176
     1
290
     1
176
     1
290
     1
176
     1
290
     0
176
     1
290
     0
176
     1
290
     0
176
     1
290
     0
176
     1
290
     0
176
     1
290
     0
176
     1
 90
       50
176
     1
 40
0.0
176
     1
 40
1.0
176
     1
 90
        0
176
     1
 62
    18
420
        0
176
     1
 90
       50
176
     1
 90
        3
176
     1
 62
     5
420
      255
176
     1
290
     0
176
     1
 90
       50
176
     1
 90
       50
176
     1
 90
       50
176
     1
290
     0
176
     1
 90
       50
176
     1
 62
   256
176
     0
 40
1.0
176
     0
 90
        2
176
     1
  1
strokes_ogs.tif
176
     1
290
     0
176
     1
 40
1.0
176
     1
 40
1.0
176
     1
  0
VISUALSTYLE
  5
40
102
{ACAD_REACTORS
330
29
102
}
330
29
100
AcDbVisualStyle
  2
OverhangOff
 70
    21
177
     3
291
     1
 70
    58
 90
        2
176
     0
 90
        2
176
     0
 90
        0
176
     0
 90
        0
176
     0
 40
0.6
176
     0
 40
30.0
176
     0
 62
     7
420
 16777215
176
     0
 90
        1
176
     0
 90
        4
176
     0
 62
     7
176
     0
 62
   257
176
     0
 90
        1
176
     0
 90
        1
176
     0
 40
1.0
176
     0
 90
        9
176
     2
 62
     7
176
     0
 40
1.0
176
     0
 90
        1
176
     0
 90
        6
176
     0
 90
        2
176
     0
 62
     7
176
     0
 90
        5
176
     0
 90
        0
176
     0
 90
        0
176
     0
290
     0
176
     0
 90
        1
176
     0
 40
0.0
176
     0
 90
        0
176
     0
290
     0
176
     0
290
     1
176
     0
290
     1
176
     0
290
     0
176
     0
290
     0
176
     0
290
     0
176
     0
290
     0
176
     0
290
     0
176
     0
290
     0
176
     0
 90
       50
176
     0
 40
0.0
176
     0
 40
1.0
176
     0
 90
        0
176
     0
 62
    18
420
        0
176
     0
 90
       50
176
     0
 90
        3
176
     0
 62
     5
420
      255
176
     0
290
     0
176
     0
 90
       50
176
     0
 90
       50
176
     0
 90
       50
176
     0
290
     0
176
     0
 90
       50
176
     0
 62
   256
176
     0
 40
1.0
176
     0
 90
        2
176
     0
  1
strokes_ogs.tif
176
     0
290
     0
176
     0
 40
1.0
176
     0
 40
1.0
176
     0
  0
VISUALSTYLE
  5
33
102
{ACAD_REACTORS
330
29
102
}
330
29
100
AcDbVisualStyle
  2
Realistic
 70
     8
177
     3
291
     0
 70
    58
 90
        2
176
     1
 90
        3
176
     1
 90
        0
176
     1
 90
        2
176
     1
 40
0.6
176
     1
 40
30.0
176
     1
 62
     7
420
 16777215
176
     1
 90
        0
176
     1
 90
        0
176
     1
 62
     7
176
     1
 62
   257
176
     1
 90
        1
176
     1
 90
        1
176
     1
 40
1.0
176
     1
 90
        8
176
     1
 62
   257
176
     1
 40
1.0
176
     1
 90
        1
176
     1
 90
        6
176
     1
 90
        2
176
     1
 62
     7
176
     1
 90
        3
176
     1
 90
        0
176
     1
 90
        0
176
     1
290
     0
176
     1
 90
       13
176
     1
 40
0.0
176
     1
 90
        0
176
     1
290
     0
176
     1
290
     1
176
     1
290
     1
176
     1
290
     0
176
     1
290
     0
176
     1
290
     0
176
     1
290
     0
176
     1
290
     0
176
     1
290
     0
176
     1
 90
       50
176
     1
 40
0.0
176
     1
 40
1.0
176
     1
 90
        0
176
     1
 62
    18
420
        0
176
     1
 90
       50
176
     1
 90
        3
176
     1
 62
     5
420
      255
176
     1
290
     0
176
     1
 90
       50
176
     1
 90
       50
176
     1
 90
       50
176
     1
290
     0
176
     1
 90
       50
176
     1
 62
   256
176
     0
 40
1.0
176
     0
 90
        2
176
     1
  1
strokes_ogs.tif
176
     1
290
     0
176
     1
 40
1.0
176
     1
 40
1.0
176
     1
  0
VISUALSTYLE
  5
3E
102
{ACAD_REACTORS
330
29
102
}
330
29
100
AcDbVisualStyle
  2
Shaded
 70
    27
177
     3
291
     0
 70
    58
 90
        2
176
     1
 90
        2
176
     1
 90
        1
176
     1
 90
        2
176
     1
 40
0.6
176
     1
 40
30.0
176
     1
 62
     7
420
 16777215
176
     1
 90
        0
176
     1
 90
        4
176
     1
 62
     7
176
     1
 62
   257
176
     1
 90
        1
176
     1
 90
        1
176
     1
 40
1.0
176
     1
 90
        8
176
     1
 62
   257
176
     1
 40
1.0
176
     1
 90
        1
176
     1
 90
        6
176
     1
 90
        2
176
     1
 62
     8
420
  7895160
176
     1
 90
        3
176
     1
 90
        0
176
     1
 90
        0
176
     1
290
     0
176
     1
 90
        5
176
     1
 40
0.0
176
     1
 90
        0
176
     1
290
     0
176
     1
290
     1
176
     1
290
     1
176
     1
290
     0
176
     1
290
     0
176
     1
290
     0
176
     1
290
     0
176
     1
290
     0
176
     1
290
     0
176
     1
 90
       50
176
     1
 40
0.0
176
     1
 40
1.0
176
     1
 90
        0
176
     1
 62
    18
420
        0
176
     1
 90
       50
176
     1
 90
        3
176
     1
 62
     5
420
      255
176
     1
290
     0
176
     1
 90
       50
176
     1
 90
       50
176
     1
 90
       50
176
     1
290
     0
176
     1
 90
       50
176
     1
 62
   256
176
     0
 40
1.0
176
     0
 90
        2
176
     1
  1
strokes_ogs.tif
176
     1
290
     0
176
     1
 40
1.0
176
     1
 40
1.0
176
     1
  0
VISUALSTYLE
  5
3D
102
{ACAD_REACTORS
330
29
102
}
330
29
100
AcDbVisualStyle
  2
Shaded with edges
 70
    26
177
     3
291
     0
 70
    58
 90
        2
176
     1
 90
        2
176
     1
 90
        1
176
     1
 90
        2
176
     1
 40
0.6
176
     1
 40
30.0
176
     1
 62
     7
420
 16777215
176
     1
 90
        1
176
     1
 90
       10
176
     1
 62
     7
176
     1
 62
   257
176
     1
 90
        2
176
     1
 90
        1
176
     1
 40
1.0
176
     1
 90
        8
176
     1
 62
   257
176
     1
 40
1.0
176
     1
 90
        1
176
     1
 90
        6
176
     1
 90
        2
176
     1
 62
     7
176
     1
 90
        3
176
     1
 90
        0
176
     1
 90
        0
176
     1
290
     0
176
     1
 90
        5
176
     1
 40
0.0
176
     1
 90
        0
176
     1
290
     0
176
     1
290
     1
176
     1
290
     1
176
     1
290
     0
176
     1
290
     0
176
     1
290
     0
176
     1
290
     0
176
     1
290
     0
176
     1
290
     0
176
     1
 90
       50
176
     1
 40
0.0
176
     1
 40
1.0
176
     1
 90
        0
176
     1
 62
    18
420
        0
176
     1
 90
       50
176
     1
 90
        3
176
     1
 62
     5
420
      255
176
     1
290
     0
176
     1
 90
       50
176
     1
 90
       50
176
     1
 90
       50
176
     1
290
     0
176
     1
 90
       50
176
     1
 62
   256
176
     0
 40
1.0
176
     0
 90
        2
176
     1
  1
strokes_ogs.tif
176
     1
290
     0
176
     1
 40
1.0
176
     1
 40
1.0
176
     1
  0
VISUALSTYLE
  5
3A
102
{ACAD_REACTORS
330
29
102
}
330
29
100
AcDbVisualStyle
  2
Shades of Gray
 70
    23
177
     3
291
     0
 70
    58
 90
        2
176
     1
 90
        2
176
     1
 90
        3
176
     1
 90
        0
176
     1
 40
0.6
176
     1
 40
30.0
176
     1
 62
     7
420
 16777215
176
     1
 90
        2
176
     1
 90
        2
176
     1
 62
     7
176
     1
 62
     7
176
     1
 90
        1
176
     1
 90
        1
176
     1
 40
40.0
176
     1
 90
        8
176
     1
 62
     7
176
     1
 40
1.0
176
     1
 90
        1
176
     1
 90
        6
176
     1
 90
        2
176
     1
 62
     7
176
     1
 90
        3
176
     1
 90
        0
176
     1
 90
        0
176
     1
290
     0
176
     1
 90
        1
176
     1
 40
0.0
176
     1
 90
        0
176
     1
290
     0
176
     1
290
     1
176
     1
290
     1
176
     1
290
     0
176
     1
290
     0
176
     1
290
     0
176
     1
290
     0
176
     1
290
     0
176
     1
290
     0
176
     1
 90
       50
176
     1
 40
0.0
176
     1
 40
1.0
176
     1
 90
        0
176
     1
 62
    18
420
        0
176
     1
 90
       50
176
     1
 90
        3
176
     1
 62
     5
420
      255
176
     1
290
     0
176
     1
 90
       50
176
     1
 90
       50
176
     1
 90
       50
176
     1
290
     0
176
     1
 90
       50
176
     1
 62
   256
176
     0
 40
1.0
176
     0
 90
        2
176
     1
  1
strokes_ogs.tif
176
     1
290
     0
176
     1
 40
1.0
176
     1
 40
1.0
176
     1
  0
VISUALSTYLE
  5
3B
102
{ACAD_REACTORS
330
29
102
}
330
29
100
AcDbVisualStyle
  2
Sketchy
 70
    24
177
     3
291
     0
 70
    58
 90
        1
176
     1
 90
        2
176
     1
 90
        2
176
     1
 90
        0
176
     1
 40
0.6
176
     1
 40
30.0
176
     1
 62
     7
420
 16777215
176
     1
 90
        2
176
     1
 90
        2
176
     1
 62
     7
176
     1
 62
     7
176
     1
 90
        1
176
     1
 90
        1
176
     1
 40
40.0
176
     1
 90
       11
176
     1
 62
     7
176
     1
 40
1.0
176
     1
 90
        1
176
     1
 90
        6
176
     1
 90
        2
176
     1
 62
     7
176
     1
 90
        6
176
     1
 90
        0
176
     1
 90
        0
176
     1
290
     0
176
     1
 90
        1
176
     1
 40
0.0
176
     1
 90
        0
176
     1
290
     0
176
     1
290
     1
176
     1
290
     1
176
     1
290
     0
176
     1
290
     0
176
     1
290
     0
176
     1
290
     0
176
     1
290
     0
176
     1
290
     0
176
     1
 90
       50
176
     1
 40
0.0
176
     1
 40
1.0
176
     1
 90
        0
176
     1
 62
    18
420
        0
176
     1
 90
       50
176
     1
 90
        3
176
     1
 62
     5
420
      255
176
     1
290
     0
176
     1
 90
       50
176
     1
 90
       50
176
     1
 90
       50
176
     1
290
     0
176
     1
 90
       50
176
     1
 62
   256
176
     0
 40
1.0
176
     0
 90
        2
176
     1
  1
strokes_ogs.tif
176
     1
290
     0
176
     1
 40
1.0
176
     1
 40
1.0
176
     1
  0
VISUALSTYLE
  5
36
102
{ACAD_REACTORS
330
29
102
}
330
29
100
AcDbVisualStyle
  2
Thicken
 70
    13
177
     3
291
     1
 70
    58
 90
        2
176
     1
 90
        2
176
     1
 90
        0
176
     1
 90
        0
176
     1
 40
0.6
176
     1
 40
30.0
176
     1
 62
     7
420
 16777215
176
     1
 90
        1
176
     1
 90
        4
176
     1
 62
     7
176
     1
 62
   257
176
     1
 90
        1
176
     1
 90
        1
176
     1
 40
1.0
176
     1
 90
       12
176
     1
 62
     7
176
     1
 40
1.0
176
     1
 90
        1
176
     1
 90
        6
176
     1
 90
        2
176
     1
 62
     7
176
     1
 90
        5
176
     1
 90
        0
176
     1
 90
        0
176
     1
290
     0
176
     1
 90
        1
176
     1
 40
0.0
176
     1
 90
        0
176
     1
290
     0
176
     1
290
     1
176
     1
290
     1
176
     1
290
     0
176
     1
290
     0
176
     1
290
     0
176
     1
290
     0
176
     1
290
     0
176
     1
290
     0
176
     1
 90
       50
176
     1
 40
0.0
176
     1
 40
1.0
176
     1
 90
        0
176
     1
 62
    18
420
        0
176
     1
 90
       50
176
     1
 90
        3
176
     1
 62
     5
420
      255
176
     1
290
     0
176
     1
 90
       50
176
     1
 90
       50
176
     1
 90
       50
176
     1
290
     0
176
     1
 90
       50
176
     1
 62
   256
176
     0
 40
1.0
176
     0
 90
        2
176
     1
  1
strokes_ogs.tif
176
     1
290
     0
176
     1
 40
1.0
176
     1
 40
1.0
176
     1
  0
VISUALSTYLE
  5
30
102
{ACAD_REACTORS
330
29
102
}
330
29
100
AcDbVisualStyle
  2
Wireframe
 70
     5
177
     3
291
     0
 70
    58
 90
        0
176
     1
 90
        2
176
     1
 90
        0
176
     1
 90
        0
176
     1
 40
0.6
176
     1
 40
30.0
176
     1
 62
     7
420
 16777215
176
     1
 90
        1
176
     1
 90
        4
176
     1
 62
     7
176
     1
 62
   257
176
     1
 90
        1
176
     1
 90
        1
176
     1
 40
1.0
176
     1
 90
        0
176
     1
 62
   257
176
     1
 40
1.0
176
     1
 90
        1
176
     1
 90
        6
176
     1
 90
        2
176
     1
 62
     7
176
     1
 90
        3
176
     1
 90
        0
176
     1
 90
        0
176
     1
290
     0
176
     1
 90
        1
176
     1
 40
0.0
176
     1
 90
        0
176
     1
290
     0
176
     1
290
     1
176
     1
290
     1
176
     1
290
     0
176
     1
290
     0
176
     1
290
     0
176
     1
290
     0
176
     1
290
     0
176
     1
290
     0
176
     1
 90
       50
176
     1
 40
0.0
176
     1
 40
1.0
176
     1
 90
        0
176
     1
 62
    18
420
        0
176
     1
 90
       50
176
     1
 90
        3
176
     1
 62
     5
420
      255
176
     1
290
     0
176
     1
 90
       50
176
     1
 90
       50
176
     1
 90
       50
176
     1
290
     0
176
     1
 90
       50
176
     1
 62
   256
176
     0
 40
1.0
176
     0
 90
        2
176
     1
  1
strokes_ogs.tif
176
     1
290
     0
176
     1
 40
1.0
176
     1
 40
1.0
176
     1
  0
VISUALSTYLE
  5
3C
102
{ACAD_REACTORS
330
29
102
}
330
29
100
AcDbVisualStyle
  2
X-Ray
 70
    25
177
     3
291
     0
 70
    58
 90
        2
176
     1
 90
        2
176
     1
 90
        1
176
     1
 90
        1
176
     1
 40
0.5
176
     1
 40
30.0
176
     1
 62
     7
420
 16777215
176
     1
 90
        1
176
     1
 90
        0
176
     1
 62
     7
176
     1
 62
   257
176
     1
 90
        1
176
     1
 90
        1
176
     1
 40
1.0
176
     1
 90
        8
176
     1
 62
     7
176
     1
 40
1.0
176
     1
 90
        1
176
     1
 90
        6
176
     1
 90
        2
176
     1
 62
     7
176
     1
 90
        3
176
     1
 90
        0
176
     1
 90
        0
176
     1
290
     0
176
     1
 90
       13
176
     1
 40
0.0
176
     1
 90
        0
176
     1
290
     0
176
     1
290
     1
176
     1
290
     1
176
     1
290
     0
176
     1
290
     0
176
     1
290
     0
176
     1
290
     0
176
     1
290
     0
176
     1
290
     0
176
     1
 90
       50
176
     1
 40
0.0
176
     1
 40
1.0
176
     1
 90
        0
176
     1
 62
    18
420
        0
176
     1
 90
       50
176
     1
 90
        3
176
     1
 62
     5
420
      255
176
     1
290
     0
176
     1
 90
       50
176
     1
 90
       50
176
     1
 90
       50
176
     1
290
     0
176
     1
 90
       50
176
     1
 62
   256
176
     0
 40
1.0
176
     0
 90
        2
176
     1
  1
strokes_ogs.tif
176
     1
290
     0
176
     1
 40
1.0
176
     1
 40
1.0
176
     1
  0
DICTIONARYVAR
  5
81
102
{ACAD_REACTORS
330
7C
102
}
330
7C
100
DictionaryVariables
280
     0
  1
1:1
  0
DICTIONARYVAR
  5
7E
102
{ACAD_REACTORS
330
7C
102
}
330
7C
100
DictionaryVariables
280
     0
  1
STANDARD
  0
DICTIONARYVAR
  5
7D
102
{ACAD_REACTORS
330
7C
102
}
330
7C
100
DictionaryVariables
280
     0
  1
STANDARD
  0
DICTIONARYVAR
  5
7F
102
{ACAD_REACTORS
330
7C
102
}
330
7C
100
DictionaryVariables
280
     0
  1
Imperial24
  0
DICTIONARYVAR
  5
80
102
{ACAD_REACTORS
330
7C
102
}
330
7C
100
DictionaryVariables
280
     0
  1
Imperial24
  0
XRECORD
  5
285
102
{ACAD_REACTORS
330
281
102
}
330
281
100
AcDbXrecord
280
     1
  1
BUILDING_ID
  1
Progetto per test valvole
  1
FLOOR_ID
  1
694395
  0
XRECORD
  5
283
102
{ACAD_REACTORS
330
281
102
}
330
281
100
AcDbXrecord
280
     1
  1
-2001160
  1
Apparecchi idraulici
  0
XRECORD
  5
284
102
{ACAD_REACTORS
330
281
102
}
330
281
100
AcDbXrecord
280
     1
  1
790271
  1
Body
  0
XRECORD
  5
282
102
{ACAD_REACTORS
330
281
102
}
330
281
100
AcDbXrecord
280
     1
  1
859151
  1
Automatic flow rate regulator valve_Caleffi_121 DN15 : 1/2''
  0
DICTIONARY
  5
1A
330
19
100
AcDbDictionary
280
     1
281
     1
  3
BUMPTILE
360
1C
  3
DIFFUSETILE
360
1B
  3
OPACITYTILE
360
1F
  3
REFLECTIONTILE
360
1E
  3
REFRACTIONTILE
360
20
  3
SPECULARTILE
360
1D
  0
DICTIONARY
  5
12
330
11
100
AcDbDictionary
280
     1
281
     1
  3
BUMPTILE
360
14
  3
DIFFUSETILE
360
13
  3
OPACITYTILE
360
17
  3
REFLECTIONTILE
360
16
  3
REFRACTIONTILE
360
18
  3
SPECULARTILE
360
15
  0
DICTIONARY
  5
22
330
21
100
AcDbDictionary
280
     1
281
     1
  3
BUMPTILE
360
24
  3
DIFFUSETILE
360
23
  3
OPACITYTILE
360
27
  3
REFLECTIONTILE
360
26
  3
REFRACTIONTILE
360
28
  3
SPECULARTILE
360
25
  0
DICTIONARY
  5
288
330
65
100
AcDbDictionary
280
     1
281
     1
  3
ACAD_ROUNDTRIP_2008_TABLESTYLE_CELLSTYLEMAP
360
289
  0
XRECORD
  5
1C
102
{ACAD_REACTORS
330
1A
102
}
330
1A
100
AcDbXrecord
280
     1
270
     1
271
     1
  0
XRECORD
  5
1B
102
{ACAD_REACTORS
330
1A
102
}
330
1A
100
AcDbXrecord
280
     1
270
     1
271
     1
  0
XRECORD
  5
1F
102
{ACAD_REACTORS
330
1A
102
}
330
1A
100
AcDbXrecord
280
     1
270
     1
271
     1
  0
XRECORD
  5
1E
102
{ACAD_REACTORS
330
1A
102
}
330
1A
100
AcDbXrecord
280
     1
270
     1
271
     1
  0
XRECORD
  5
20
102
{ACAD_REACTORS
330
1A
102
}
330
1A
100
AcDbXrecord
280
     1
270
     1
271
     1
  0
XRECORD
  5
1D
102
{ACAD_REACTORS
330
1A
102
}
330
1A
100
AcDbXrecord
280
     1
270
     1
271
     1
  0
XRECORD
  5
14
102
{ACAD_REACTORS
330
12
102
}
330
12
100
AcDbXrecord
280
     1
270
     1
271
     1
  0
XRECORD
  5
13
102
{ACAD_REACTORS
330
12
102
}
330
12
100
AcDbXrecord
280
     1
270
     1
271
     1
  0
XRECORD
  5
17
102
{ACAD_REACTORS
330
12
102
}
330
12
100
AcDbXrecord
280
     1
270
     1
271
     1
  0
XRECORD
  5
16
102
{ACAD_REACTORS
330
12
102
}
330
12
100
AcDbXrecord
280
     1
270
     1
271
     1
  0
XRECORD
  5
18
102
{ACAD_REACTORS
330
12
102
}
330
12
100
AcDbXrecord
280
     1
270
     1
271
     1
  0
XRECORD
  5
15
102
{ACAD_REACTORS
330
12
102
}
330
12
100
AcDbXrecord
280
     1
270
     1
271
     1
  0
XRECORD
  5
24
102
{ACAD_REACTORS
330
22
102
}
330
22
100
AcDbXrecord
280
     1
270
     1
271
     1
  0
XRECORD
  5
23
102
{ACAD_REACTORS
330
22
102
}
330
22
100
AcDbXrecord
280
     1
270
     1
271
     1
  0
XRECORD
  5
27
102
{ACAD_REACTORS
330
22
102
}
330
22
100
AcDbXrecord
280
     1
270
     1
271
     1
  0
XRECORD
  5
26
102
{ACAD_REACTORS
330
22
102
}
330
22
100
AcDbXrecord
280
     1
270
     1
271
     1
  0
XRECORD
  5
28
102
{ACAD_REACTORS
330
22
102
}
330
22
100
AcDbXrecord
280
     1
270
     1
271
     1
  0
XRECORD
  5
25
102
{ACAD_REACTORS
330
22
102
}
330
22
100
AcDbXrecord
280
     1
270
     1
271
     1
  0
CELLSTYLEMAP
  5
289
102
{ACAD_REACTORS
330
288
102
}
330
288
100
AcDbCellStyleMap
 90
        3
300
CELLSTYLE
  1
TABLEFORMAT_BEGIN
 90
        5
170
     1
 91
        0
 92
    32768
 62
   257
 93
        1
300
CONTENTFORMAT
  1
CONTENTFORMAT_BEGIN
 90
        0
 91
        0
 92
      512
 93
        0
300

 40
0.0
140
1.0
 94
        5
 62
     0
340
55
144
0.25
309
CONTENTFORMAT_END
171
     0
 94
        0
309
TABLEFORMAT_END
  1
CELLSTYLE_BEGIN
 90
        1
 91
        1
300
_TITLE
309
CELLSTYLE_END
300
CELLSTYLE
  1
TABLEFORMAT_BEGIN
 90
        5
170
     1
 91
        0
 92
        0
 62
   257
 93
        1
300
CONTENTFORMAT
  1
CONTENTFORMAT_BEGIN
 90
        0
 91
        0
 92
      512
 93
        0
300

 40
0.0
140
1.0
 94
        5
 62
     0
340
55
144
0.18
309
CONTENTFORMAT_END
171
     0
 94
        0
309
TABLEFORMAT_END
  1
CELLSTYLE_BEGIN
 90
        2
 91
        1
300
_HEADER
309
CELLSTYLE_END
300
CELLSTYLE
  1
TABLEFORMAT_BEGIN
 90
        5
170
     1
 91
        0
 92
        0
 62
   257
 93
        1
300
CONTENTFORMAT
  1
CONTENTFORMAT_BEGIN
 90
        0
 91
        0
 92
      512
 93
        0
300

 40
0.0
140
1.0
 94
        2
 62
     0
340
55
144
0.18
309
CONTENTFORMAT_END
171
     0
 94
        0
309
TABLEFORMAT_END
  1
CELLSTYLE_BEGIN
 90
        3
 91
        2
300
_DATA
309
CELLSTYLE_END
  0
ENDSEC
  0
EOF
