  0
SECTION
  2
HEADER
  9
$ACADVER
  1
AC1027
  9
$ACADMAINTVER
 70
    20
  9
$DWGCODEPAGE
  3
ANSI_1252
  9
$REQUIREDVERSIONS
160
                 0
  9
$INSBASE
 10
0.0
 20
0.0
 30
0.0
  9
$EXTMIN
 10
667.6664074431878
 20
1776.995878730053
 30
-0.00000001
  9
$EXTMAX
 10
1096.364353943098
 20
2033.500000000002
 30
0.00000001
  9
$LIMMIN
 10
0.0
 20
0.0
  9
$LIMMAX
 10
12.0
 20
9.0
  9
$ORTHOMODE
 70
     0
  9
$REGENMODE
 70
     1
  9
$FILLMODE
 70
     1
  9
$QTEXTMODE
 70
     0
  9
$MIRRTEXT
 70
     0
  9
$LTSCALE
 40
1.0
  9
$ATTMODE
 70
     1
  9
$TEXTSIZE
 40
0.2
  9
$TRACEWID
 40
0.05
  9
$TEXTSTYLE
  7
Standard
  9
$CLAYER
  8
0
  9
$CELTYPE
  6
ByLayer
  9
$CECOLOR
 62
   256
  9
$CELTSCALE
 40
1.0
  9
$DISPSILH
 70
     0
  9
$DIMSCALE
 40
1.0
  9
$DIMASZ
 40
0.18
  9
$DIMEXO
 40
0.0625
  9
$DIMDLI
 40
0.38
  9
$DIMRND
 40
0.0
  9
$DIMDLE
 40
0.0
  9
$DIMEXE
 40
0.18
  9
$DIMTP
 40
0.0
  9
$DIMTM
 40
0.0
  9
$DIMTXT
 40
0.18
  9
$DIMCEN
 40
0.09
  9
$DIMTSZ
 40
0.0
  9
$DIMTOL
 70
     0
  9
$DIMLIM
 70
     0
  9
$DIMTIH
 70
     1
  9
$DIMTOH
 70
     1
  9
$DIMSE1
 70
     0
  9
$DIMSE2
 70
     0
  9
$DIMTAD
 70
     0
  9
$DIMZIN
 70
     0
  9
$DIMBLK
  1

  9
$DIMASO
 70
     1
  9
$DIMSHO
 70
     1
  9
$DIMPOST
  1

  9
$DIMAPOST
  1

  9
$DIMALT
 70
     0
  9
$DIMALTD
 70
     2
  9
$DIMALTF
 40
25.4
  9
$DIMLFAC
 40
1.0
  9
$DIMTOFL
 70
     0
  9
$DIMTVP
 40
0.0
  9
$DIMTIX
 70
     0
  9
$DIMSOXD
 70
     0
  9
$DIMSAH
 70
     0
  9
$DIMBLK1
  1

  9
$DIMBLK2
  1

  9
$DIMSTYLE
  2
Standard
  9
$DIMCLRD
 70
     0
  9
$DIMCLRE
 70
     0
  9
$DIMCLRT
 70
     0
  9
$DIMTFAC
 40
1.0
  9
$DIMGAP
 40
0.09
  9
$DIMJUST
 70
     0
  9
$DIMSD1
 70
     0
  9
$DIMSD2
 70
     0
  9
$DIMTOLJ
 70
     1
  9
$DIMTZIN
 70
     0
  9
$DIMALTZ
 70
     0
  9
$DIMALTTZ
 70
     0
  9
$DIMUPT
 70
     0
  9
$DIMDEC
 70
     4
  9
$DIMTDEC
 70
     4
  9
$DIMALTU
 70
     2
  9
$DIMALTTD
 70
     2
  9
$DIMTXSTY
  7
Standard
  9
$DIMAUNIT
 70
     0
  9
$DIMADEC
 70
     0
  9
$DIMALTRND
 40
0.0
  9
$DIMAZIN
 70
     0
  9
$DIMDSEP
 70
    46
  9
$DIMATFIT
 70
     3
  9
$DIMFRAC
 70
     0
  9
$DIMLDRBLK
  1

  9
$DIMLUNIT
 70
     2
  9
$DIMLWD
 70
    -2
  9
$DIMLWE
 70
    -2
  9
$DIMTMOVE
 70
     0
  9
$DIMFXL
 40
1.0
  9
$DIMFXLON
 70
     0
  9
$DIMJOGANG
 40
0.7853981633974483
  9
$DIMTFILL
 70
     0
  9
$DIMTFILLCLR
 70
     0
  9
$DIMARCSYM
 70
     0
  9
$DIMLTYPE
  6

  9
$DIMLTEX1
  6

  9
$DIMLTEX2
  6

  9
$DIMTXTDIRECTION
 70
     0
  9
$LUNITS
 70
     2
  9
$LUPREC
 70
     4
  9
$SKETCHINC
 40
0.1
  9
$FILLETRAD
 40
0.0
  9
$AUNITS
 70
     0
  9
$AUPREC
 70
     0
  9
$MENU
  1
.
  9
$ELEVATION
 40
0.0
  9
$PELEVATION
 40
0.0
  9
$THICKNESS
 40
0.0
  9
$LIMCHECK
 70
     0
  9
$CHAMFERA
 40
0.0
  9
$CHAMFERB
 40
0.0
  9
$CHAMFERC
 40
0.0
  9
$CHAMFERD
 40
0.0
  9
$SKPOLY
 70
     0
  9
$TDCREATE
 40
2457540.423660949
  9
$TDUCREATE
 40
2457540.340327616
  9
$TDUPDATE
 40
2457540.423660949
  9
$TDUUPDATE
 40
2457540.340327616
  9
$TDINDWG
 40
0.0000150926
  9
$TDUSRTIMER
 40
0.0000150926
  9
$USRTIMER
 70
     1
  9
$ANGBASE
 50
0.0
  9
$ANGDIR
 70
     0
  9
$PDMODE
 70
     0
  9
$PDSIZE
 40
0.0
  9
$PLINEWID
 40
0.0
  9
$SPLFRAME
 70
     0
  9
$SPLINETYPE
 70
     6
  9
$SPLINESEGS
 70
     8
  9
$HANDSEED
  5
360
  9
$SURFTAB1
 70
     6
  9
$SURFTAB2
 70
     6
  9
$SURFTYPE
 70
     6
  9
$SURFU
 70
     6
  9
$SURFV
 70
     6
  9
$UCSBASE
  2

  9
$UCSNAME
  2

  9
$UCSORG
 10
0.0
 20
0.0
 30
0.0
  9
$UCSXDIR
 10
1.0
 20
0.0
 30
0.0
  9
$UCSYDIR
 10
0.0
 20
1.0
 30
0.0
  9
$UCSORTHOREF
  2

  9
$UCSORTHOVIEW
 70
     0
  9
$UCSORGTOP
 10
0.0
 20
0.0
 30
0.0
  9
$UCSORGBOTTOM
 10
0.0
 20
0.0
 30
0.0
  9
$UCSORGLEFT
 10
0.0
 20
0.0
 30
0.0
  9
$UCSORGRIGHT
 10
0.0
 20
0.0
 30
0.0
  9
$UCSORGFRONT
 10
0.0
 20
0.0
 30
0.0
  9
$UCSORGBACK
 10
0.0
 20
0.0
 30
0.0
  9
$PUCSBASE
  2

  9
$PUCSNAME
  2

  9
$PUCSORG
 10
0.0
 20
0.0
 30
0.0
  9
$PUCSXDIR
 10
1.0
 20
0.0
 30
0.0
  9
$PUCSYDIR
 10
0.0
 20
1.0
 30
0.0
  9
$PUCSORTHOREF
  2

  9
$PUCSORTHOVIEW
 70
     0
  9
$PUCSORGTOP
 10
0.0
 20
0.0
 30
0.0
  9
$PUCSORGBOTTOM
 10
0.0
 20
0.0
 30
0.0
  9
$PUCSORGLEFT
 10
0.0
 20
0.0
 30
0.0
  9
$PUCSORGRIGHT
 10
0.0
 20
0.0
 30
0.0
  9
$PUCSORGFRONT
 10
0.0
 20
0.0
 30
0.0
  9
$PUCSORGBACK
 10
0.0
 20
0.0
 30
0.0
  9
$USERI1
 70
     0
  9
$USERI2
 70
     0
  9
$USERI3
 70
     0
  9
$USERI4
 70
     0
  9
$USERI5
 70
     0
  9
$USERR1
 40
0.0
  9
$USERR2
 40
0.0
  9
$USERR3
 40
0.0
  9
$USERR4
 40
0.0
  9
$USERR5
 40
0.0
  9
$WORLDVIEW
 70
     1
  9
$SHADEDGE
 70
     3
  9
$SHADEDIF
 70
    70
  9
$TILEMODE
 70
     1
  9
$MAXACTVP
 70
    64
  9
$PINSBASE
 10
0.0
 20
0.0
 30
0.0
  9
$PLIMCHECK
 70
     0
  9
$PEXTMIN
 10
1.000000000000000E+20
 20
1.000000000000000E+20
 30
1.000000000000000E+20
  9
$PEXTMAX
 10
-1.000000000000000E+20
 20
-1.000000000000000E+20
 30
-1.000000000000000E+20
  9
$PLIMMIN
 10
0.0
 20
0.0
  9
$PLIMMAX
 10
12.0
 20
9.0
  9
$UNITMODE
 70
     0
  9
$VISRETAIN
 70
     1
  9
$PLINEGEN
 70
     0
  9
$PSLTSCALE
 70
     1
  9
$TREEDEPTH
 70
  3020
  9
$CMLSTYLE
  2
Standard
  9
$CMLJUST
 70
     0
  9
$CMLSCALE
 40
1.0
  9
$PROXYGRAPHICS
 70
     1
  9
$MEASUREMENT
 70
     1
  9
$CELWEIGHT
370
    -1
  9
$ENDCAPS
280
     0
  9
$JOINSTYLE
280
     0
  9
$LWDISPLAY
290
     0
  9
$INSUNITS
 70
     4
  9
$HYPERLINKBASE
  1

  9
$STYLESHEET
  1

  9
$XEDIT
290
     1
  9
$CEPSNTYPE
380
     0
  9
$PSTYLEMODE
290
     1
  9
$FINGERPRINTGUID
  2
{FB006C29-603D-4905-B60B-B4222C45AB46}
  9
$VERSIONGUID
  2
{1D591019-C77B-4268-945F-DEAE37BA472A}
  9
$EXTNAMES
290
     1
  9
$PSVPSCALE
 40
0.0
  9
$OLESTARTUP
290
     0
  9
$SORTENTS
280
   127
  9
$INDEXCTL
280
     0
  9
$HIDETEXT
280
     1
  9
$XCLIPFRAME
280
     2
  9
$HALOGAP
280
     0
  9
$OBSCOLOR
 70
   257
  9
$OBSLTYPE
280
     0
  9
$INTERSECTIONDISPLAY
280
     0
  9
$INTERSECTIONCOLOR
 70
   257
  9
$DIMASSOC
280
     2
  9
$PROJECTNAME
  1

  9
$CAMERADISPLAY
290
     0
  9
$LENSLENGTH
 40
50.0
  9
$CAMERAHEIGHT
 40
0.0
  9
$STEPSPERSEC
 40
2.0
  9
$STEPSIZE
 40
6.0
  9
$3DDWFPREC
 40
2.0
  9
$PSOLWIDTH
 40
0.25
  9
$PSOLHEIGHT
 40
4.0
  9
$LOFTANG1
 40
1.570796326794896
  9
$LOFTANG2
 40
1.570796326794896
  9
$LOFTMAG1
 40
0.0
  9
$LOFTMAG2
 40
0.0
  9
$LOFTPARAM
 70
     7
  9
$LOFTNORMALS
280
     1
  9
$LATITUDE
 40
37.795
  9
$LONGITUDE
 40
-122.394
  9
$NORTHDIRECTION
 40
0.0
  9
$TIMEZONE
 70
 -8000
  9
$LIGHTGLYPHDISPLAY
280
     1
  9
$TILEMODELIGHTSYNCH
280
     1
  9
$CMATERIAL
347
11
  9
$SOLIDHIST
280
     0
  9
$SHOWHIST
280
     1
  9
$DWFFRAME
280
     2
  9
$DGNFRAME
280
     0
  9
$REALWORLDSCALE
290
     1
  9
$INTERFERECOLOR
 62
     1
  9
$INTERFEREOBJVS
345
33
  9
$INTERFEREVPVS
346
30
  9
$CSHADOW
280
     0
  9
$SHADOWPLANELOCATION
 40
0.0
  0
ENDSEC
  0
SECTION
  2
CLASSES
  0
CLASS
  1
ACDBDICTIONARYWDFLT
  2
AcDbDictionaryWithDefault
  3
ObjectDBX Classes
 90
        0
 91
        1
280
     0
281
     0
  0
CLASS
  1
MATERIAL
  2
AcDbMaterial
  3
ObjectDBX Classes
 90
     1153
 91
        3
280
     0
281
     0
  0
CLASS
  1
VISUALSTYLE
  2
AcDbVisualStyle
  3
ObjectDBX Classes
 90
     4095
 91
       24
280
     0
281
     0
  0
CLASS
  1
SCALE
  2
AcDbScale
  3
ObjectDBX Classes
 90
     1153
 91
       17
280
     0
281
     0
  0
CLASS
  1
TABLESTYLE
  2
AcDbTableStyle
  3
ObjectDBX Classes
 90
     4095
 91
        1
280
     0
281
     0
  0
CLASS
  1
MLEADERSTYLE
  2
AcDbMLeaderStyle
  3
ACDB_MLEADERSTYLE_CLASS
 90
     4095
 91
        1
280
     0
281
     0
  0
CLASS
  1
ACDBSECTIONVIEWSTYLE
  2
AcDbSectionViewStyle
  3
ObjectDBX Classes
 90
     1025
 91
        1
280
     0
281
     0
  0
CLASS
  1
ACDBDETAILVIEWSTYLE
  2
AcDbDetailViewStyle
  3
ObjectDBX Classes
 90
     1025
 91
        1
280
     0
281
     0
  0
CLASS
  1
RASTERVARIABLES
  2
AcDbRasterVariables
  3
ISM
 90
        0
 91
        1
280
     0
281
     0
  0
CLASS
  1
DICTIONARYVAR
  2
AcDbDictionaryVar
  3
ObjectDBX Classes
 90
        0
 91
        5
280
     0
281
     0
  0
CLASS
  1
CELLSTYLEMAP
  2
AcDbCellStyleMap
  3
ObjectDBX Classes
 90
     1152
 91
        2
280
     0
281
     0
  0
CLASS
  1
SORTENTSTABLE
  2
AcDbSortentsTable
  3
ObjectDBX Classes
 90
        0
 91
        1
280
     0
281
     0
  0
ENDSEC
  0
SECTION
  2
TABLES
  0
TABLE
  2
VPORT
  5
8
330
0
100
AcDbSymbolTable
 70
     1
  0
VPORT
  5
57
330
8
100
AcDbSymbolTableRecord
100
AcDbViewportTableRecord
  2
*Active
 70
     0
 10
0.0
 20
0.0
 11
1.0
 21
1.0
 12
882.0153806931431
 22
1905.247939365027
 13
0.0
 23
0.0
 14
1.0
 24
1.0
 15
0.0
 25
0.0
 16
0.0
 26
0.0
 36
1.0
 17
0.0
 27
0.0
 37
0.0
 40
256.5041212699491
 41
1.671310169900708
 42
50.0
 43
0.0
 44
0.0
 50
0.0
 51
0.0
 71
     0
 72
  1000
 73
     1
 74
     1
 75
     0
 76
     0
 77
     0
 78
     0
281
     0
 65
     1
110
0.0
120
0.0
130
0.0
111
1.0
121
0.0
131
0.0
112
0.0
122
1.0
132
0.0
 79
     0
146
0.0
 60
     3
 61
     5
292
     1
282
     1
141
0.0
142
0.0
 63
   250
421
  3355443
  0
ENDTAB
  0
TABLE
  2
LTYPE
  5
5
330
0
100
AcDbSymbolTable
 70
     3
  0
LTYPE
  5
5B
330
5
100
AcDbSymbolTableRecord
100
AcDbLinetypeTableRecord
  2
ByBlock
 70
     0
  3

 72
    65
 73
     0
 40
0.0
  0
LTYPE
  5
5C
330
5
100
AcDbSymbolTableRecord
100
AcDbLinetypeTableRecord
  2
ByLayer
 70
     0
  3

 72
    65
 73
     0
 40
0.0
  0
LTYPE
  5
5D
330
5
100
AcDbSymbolTableRecord
100
AcDbLinetypeTableRecord
  2
Continuous
 70
     0
  3
Solid line
 72
    65
 73
     0
 40
0.0
  0
LTYPE
  5
69
330
5
100
AcDbSymbolTableRecord
100
AcDbLinetypeTableRecord
  2
PHANTOM2
 70
     0
  3
___ _ _ ___ _ _ ___ _ _ ___ _ _
 72
    65
 73
     6
 40
1.25
 49
0.625
 74
     0
 49
-0.125
 74
     0
 49
0.125
 74
     0
 49
-0.125
 74
     0
 49
0.125
 74
     0
 49
-0.125
 74
     0
  0
LTYPE
  5
86
330
5
100
AcDbSymbolTableRecord
100
AcDbLinetypeTableRecord
  2
Nascosto 1_5 mm
 70
     0
  3

 72
    65
 73
     2
 40
2.2
 49
1.5
 74
     0
 49
-0.7000000000000001
 74
     0
  0
ENDTAB
  0
TABLE
  2
LAYER
  5
2
330
0
100
AcDbSymbolTable
 70
     4
  0
LAYER
  5
54
330
2
100
AcDbSymbolTableRecord
100
AcDbLayerTableRecord
  2
0
 70
     0
 62
     7
  6
Continuous
370
    -3
390
F
347
21
348
0
  0
LAYER
  5
85
330
2
100
AcDbSymbolTableRecord
100
AcDbLayerTableRecord
  2
P-SANR-FIXT
 70
     0
 62
     6
  6
Continuous
370
    18
390
F
347
21
348
0
  0
LAYER
  5
88
330
2
100
AcDbSymbolTableRecord
100
AcDbLayerTableRecord
  2
M-PIPE
 70
     0
 62
     3
  6
Continuous
370
    18
390
F
347
21
348
0
  0
ENDTAB
  0
TABLE
  2
STYLE
  5
3
330
0
100
AcDbSymbolTable
 70
     2
  0
STYLE
  5
55
330
3
100
AcDbSymbolTableRecord
100
AcDbTextStyleTableRecord
  2
Standard
 70
     0
 40
0.0
 41
1.0
 50
0.0
 71
     0
 42
0.2
  3
txt
  4

  0
STYLE
  5
5A
330
3
100
AcDbSymbolTableRecord
100
AcDbTextStyleTableRecord
  2
Annotative
 70
     0
 40
0.0
 41
1.0
 50
0.0
 71
     0
 42
0.2
  3
txt
  4

1001
AcadAnnotative
1000
AnnotativeData
1002
{
1070
     1
1070
     1
1002
}
  0
ENDTAB
  0
TABLE
  2
VIEW
  5
6
330
0
100
AcDbSymbolTable
 70
     0
  0
ENDTAB
  0
TABLE
  2
UCS
  5
7
330
0
100
AcDbSymbolTable
 70
     0
  0
ENDTAB
  0
TABLE
  2
APPID
  5
9
330
0
100
AcDbSymbolTable
 70
     3
  0
APPID
  5
56
330
9
100
AcDbSymbolTableRecord
100
AcDbRegAppTableRecord
  2
ACAD
 70
     0
  0
APPID
  5
5E
330
9
100
AcDbSymbolTableRecord
100
AcDbRegAppTableRecord
  2
AcadAnnotative
 70
     0
  0
APPID
  5
79
330
9
100
AcDbSymbolTableRecord
100
AcDbRegAppTableRecord
  2
REVIT
 70
     0
  0
ENDTAB
  0
TABLE
  2
DIMSTYLE
  5
A
330
0
100
AcDbSymbolTable
 70
     2
100
AcDbDimStyleTable
 71
     0
  0
DIMSTYLE
105
58
330
A
100
AcDbSymbolTableRecord
100
AcDbDimStyleTableRecord
  2
Standard
 70
     0
340
55
  0
DIMSTYLE
105
59
330
A
100
AcDbSymbolTableRecord
100
AcDbDimStyleTableRecord
  2
Annotative
 70
     0
340
55
1001
AcadAnnotative
1000
AnnotativeData
1002
{
1070
     1
1070
     1
1002
}
  0
ENDTAB
  0
TABLE
  2
BLOCK_RECORD
  5
1
330
0
100
AcDbSymbolTable
 70
     4
  0
BLOCK_RECORD
  5
71
102
{ACAD_XDICTIONARY
360
35B
102
}
330
1
100
AcDbSymbolTableRecord
100
AcDbBlockTableRecord
  2
*Model_Space
340
74
 70
     0
280
     1
281
     0
  0
BLOCK_RECORD
  5
6D
330
1
100
AcDbSymbolTableRecord
100
AcDbBlockTableRecord
  2
*Paper_Space
340
70
 70
     0
280
     1
281
     0
  0
BLOCK_RECORD
  5
75
330
1
100
AcDbSymbolTableRecord
100
AcDbBlockTableRecord
  2
*Paper_Space0
340
78
 70
     0
280
     1
281
     0
  0
BLOCK_RECORD
  5
87
330
1
100
AcDbSymbolTableRecord
100
AcDbBlockTableRecord
  2
Automatic flow rate regulator valve_Caleffi_121 DN15 - 1_2__-859151-Est - Idraulica
340
0
102
{BLKREFS
331
165
102
}
 70
     0
280
     1
281
     0
  0
BLOCK_RECORD
  5
166
330
1
100
AcDbSymbolTableRecord
100
AcDbBlockTableRecord
  2
Automatic flow rate regulator valve_Caleffi_121 DN15 - 1_2__-V1-Est - Idraulica
340
0
102
{BLKREFS
331
2C3
102
}
 70
     0
280
     1
281
     0
  0
BLOCK_RECORD
  5
2C4
330
1
100
AcDbSymbolTableRecord
100
AcDbBlockTableRecord
  2
Automatic flow rate regulator valve_Caleffi_121 DN15 - 1_2__-V2-Est - Idraulica
340
0
102
{BLKREFS
331
354
102
}
 70
     0
280
     1
281
     0
  0
ENDTAB
  0
ENDSEC
  0
SECTION
  2
BLOCKS
  0
BLOCK
  5
72
330
71
100
AcDbEntity
  8
0
100
AcDbBlockBegin
  2
*Model_Space
 70
     0
 10
0.0
 20
0.0
 30
0.0
  3
*Model_Space
  1

  0
ENDBLK
  5
73
330
71
100
AcDbEntity
  8
0
100
AcDbBlockEnd
  0
BLOCK
  5
6E
330
6D
100
AcDbEntity
 67
     1
  8
0
100
AcDbBlockBegin
  2
*Paper_Space
 70
     0
 10
0.0
 20
0.0
 30
0.0
  3
*Paper_Space
  1

  0
ENDBLK
  5
6F
330
6D
100
AcDbEntity
 67
     1
  8
0
100
AcDbBlockEnd
  0
BLOCK
  5
76
330
75
100
AcDbEntity
 67
     1
  8
0
100
AcDbBlockBegin
  2
*Paper_Space0
 70
     0
 10
0.0
 20
0.0
 30
0.0
  3
*Paper_Space0
  1

  0
ENDBLK
  5
77
330
75
100
AcDbEntity
 67
     1
  8
0
100
AcDbBlockEnd
  0
BLOCK
  5
163
330
87
100
AcDbEntity
  8
0
100
AcDbBlockBegin
  2
Automatic flow rate regulator valve_Caleffi_121 DN15 - 1_2__-859151-Est - Idraulica
 70
     0
 10
0.0
 20
0.0
 30
0.0
  3
Automatic flow rate regulator valve_Caleffi_121 DN15 - 1_2__-859151-Est - Idraulica
  1

  0
LINE
  5
89
330
87
100
AcDbEntity
  8
M-PIPE
100
AcDbLine
 10
692.0593006619427
 20
1902.415223689078
 30
0.0
 11
692.0841526133257
 21
1902.440075640461
 31
0.0
1001
REVIT
1002
{
1070
     3
1000
790271
1002
}
  0
LINE
  5
8A
330
87
100
AcDbEntity
  8
M-PIPE
100
AcDbLine
 10
692.0929350967401
 20
1902.448858123875
 30
0.0
 11
693.8270676149049
 21
1904.18299064204
 31
0.0
1001
REVIT
1002
{
1070
     3
1000
790271
1002
}
  0
LINE
  5
8B
330
87
100
AcDbEntity
  8
M-PIPE
100
AcDbLine
 10
676.1493980852539
 20
1921.8606601717
 30
0.0
 11
674.4152655670847
 21
1920.126527653531
 31
0.0
1001
REVIT
1002
{
1070
     3
1000
790271
1002
}
  0
LINE
  5
8C
330
87
100
AcDbEntity
  8
M-PIPE
100
AcDbLine
 10
674.4064830836705
 20
1920.117745170117
 30
0.0
 11
674.3816311322874
 21
1920.092893218733
 31
0.0
1001
REVIT
1002
{
1070
     3
1000
790271
1002
}
  0
LINE
  5
8D
330
87
100
AcDbEntity
  8
M-PIPE
100
AcDbLine
 10
691.3521938807562
 20
1902.415223689078
 30
0.0
 11
692.0593006619427
 21
1902.415223689078
 31
0.0
1001
REVIT
1002
{
1070
     3
1000
790271
1002
}
  0
LINE
  5
8E
330
87
100
AcDbEntity
  8
M-PIPE
100
AcDbLine
 10
674.3816311322874
 20
1920.092893218733
 30
0.0
 11
674.3816311322874
 21
1919.385786437547
 31
0.0
1001
REVIT
1002
{
1070
     3
1000
790271
1002
}
  0
LINE
  5
8F
330
87
100
AcDbEntity
  8
M-PIPE
100
AcDbLine
 10
691.3521938807549
 20
1902.415223689078
 30
0.0
 11
682.8669125065206
 21
1910.900505063312
 31
0.0
1001
REVIT
1002
{
1070
     3
1000
790271
1002
}
  0
LINE
  5
90
330
87
100
AcDbEntity
  8
M-PIPE
100
AcDbLine
 10
682.8669125065206
 20
1910.900505063312
 30
0.0
 11
674.381631132286
 21
1919.385786437546
 31
0.0
1001
REVIT
1002
{
1070
     3
1000
790271
1002
}
  0
LINE
  5
91
330
87
100
AcDbEntity
  8
M-PIPE
100
AcDbLine
 10
683.2204658971137
 20
1911.254058453905
 30
0.0
 11
692.0593006619416
 21
1902.415223689078
 31
0.0
1001
REVIT
1002
{
1070
     3
1000
790271
1002
}
  0
LINE
  5
92
330
87
100
AcDbEntity
  8
M-PIPE
100
AcDbLine
 10
674.3816311322862
 20
1920.092893218733
 30
0.0
 11
683.2204658971137
 21
1911.254058453905
 31
0.0
1001
REVIT
1002
{
1070
     3
1000
790271
1002
}
  0
LINE
  5
93
330
87
100
AcDbEntity
  8
M-PIPE
100
AcDbLine
 10
686.1903143780742
 20
1901.495984873507
 30
0.0
 11
683.0083338627349
 21
1904.677965388847
 31
0.0
1001
REVIT
1002
{
1070
     3
1000
790271
1002
}
  0
LINE
  5
94
330
87
100
AcDbEntity
  8
M-PIPE
100
AcDbLine
 10
683.0083338627349
 20
1904.677965388847
 30
0.0
 11
679.8263533473955
 21
1907.859945904186
 31
0.0
1001
REVIT
1002
{
1070
     3
1000
790271
1002
}
  0
LINE
  5
95
330
87
100
AcDbEntity
  8
M-PIPE
100
AcDbLine
 10
679.8263533473953
 20
1907.859945904186
 30
0.0
 11
676.644372832056
 21
1911.041926419526
 31
0.0
1001
REVIT
1002
{
1070
     3
1000
790271
1002
}
  0
LINE
  5
96
330
87
100
AcDbEntity
  8
M-PIPE
100
AcDbLine
 10
676.644372832056
 20
1911.041926419526
 30
0.0
 11
673.4623923167165
 21
1914.223906934866
 31
0.0
1001
REVIT
1002
{
1070
     3
1000
790271
1002
}
  0
SPLINE
  5
97
330
87
100
AcDbEntity
  8
M-PIPE
100
AcDbSpline
210
0.0
220
0.0
230
1.0
 70
    24
 71
     3
 72
     9
 73
     5
 74
     0
 42
0.000000001
 43
0.0000000001
 40
0.0
 40
0.0
 40
0.0
 40
0.0
 40
0.5
 40
1.0
 40
1.0
 40
1.0
 40
1.0
 10
673.4623923167045
 20
1914.223906934877
 30
0.0
 10
673.4683910019063
 20
1914.229905620079
 30
0.0
 10
673.5691240325994
 20
1914.330638650772
 30
0.0
 10
673.8473283838717
 20
1914.608843002044
 30
0.0
 10
674.0307983896525
 20
1914.792313007825
 30
0.0
1001
REVIT
1002
{
1070
     3
1000
790271
1002
}
  0
LINE
  5
98
330
87
100
AcDbEntity
  8
M-PIPE
100
AcDbLine
 10
674.0307983896525
 20
1914.792313007825
 30
0.0
 11
676.5029514758514
 21
1917.264466094024
 31
0.0
1001
REVIT
1002
{
1070
     3
1000
790271
1002
}
  0
SPLINE
  5
99
330
87
100
AcDbEntity
  8
M-PIPE
100
AcDbSpline
210
0.0
220
0.0
230
1.0
 70
     8
 71
     3
 72
     9
 73
     5
 74
     0
 42
0.000000001
 43
0.0000000001
 40
0.0
 40
0.0
 40
0.0
 40
0.0
 40
0.5
 40
1.0
 40
1.0
 40
1.0
 40
1.0
 10
674.0307983896525
 20
1914.792313007825
 30
0.0
 10
674.3738086898439
 20
1914.082362696065
 30
0.0
 10
675.1524147304361
 20
1912.747347952921
 30
0.0
 10
676.1161916514468
 20
1911.582104970532
 30
0.0
 10
676.6443728320568
 20
1911.041926419525
 30
0.0
1001
REVIT
1002
{
1070
     3
1000
790271
1002
}
  0
SPLINE
  5
9A
330
87
100
AcDbEntity
  8
M-PIPE
100
AcDbSpline
210
0.0
220
0.0
230
1.0
 70
     8
 71
     3
 72
     9
 73
     5
 74
     0
 42
0.000000001
 43
0.0000000001
 40
0.0
 40
0.0
 40
0.0
 40
0.0
 40
0.5
 40
1.0
 40
1.0
 40
1.0
 40
1.0
 10
676.6443728320568
 20
1911.041926419525
 30
0.0
 10
677.1845513830604
 20
1910.513745238919
 30
0.0
 10
678.3497943654432
 20
1909.549968317913
 30
0.0
 10
679.6848091085767
 20
1908.77136227732
 30
0.0
 10
680.394759420331
 20
1908.428351977127
 30
0.0
1001
REVIT
1002
{
1070
     3
1000
790271
1002
}
  0
LINE
  5
9B
330
87
100
AcDbEntity
  8
M-PIPE
100
AcDbLine
 10
680.3947594203263
 20
1908.428351977131
 30
0.0
 11
682.8669125065305
 21
1910.900505063345
 31
0.0
1001
REVIT
1002
{
1070
     3
1000
790271
1002
}
  0
SPLINE
  5
9C
330
87
100
AcDbEntity
  8
M-PIPE
100
AcDbSpline
210
0.0
220
0.0
230
1.0
 70
     8
 71
     3
 72
     9
 73
     5
 74
     0
 42
0.000000001
 43
0.0000000001
 40
0.0
 40
0.0
 40
0.0
 40
0.0
 40
0.5
 40
1.0
 40
1.0
 40
1.0
 40
1.0
 10
680.3947594203263
 20
1908.428351977131
 30
0.0
 10
680.7377697205154
 20
1907.718401665373
 30
0.0
 10
681.5163757611047
 20
1906.383386922235
 30
0.0
 10
682.4801526821167
 20
1905.218143939855
 30
0.0
 10
683.0083338627282
 20
1904.677965388854
 30
0.0
1001
REVIT
1002
{
1070
     3
1000
790271
1002
}
  0
SPLINE
  5
9D
330
87
100
AcDbEntity
  8
M-PIPE
100
AcDbSpline
210
0.0
220
0.0
230
1.0
 70
     8
 71
     3
 72
     9
 73
     5
 74
     0
 42
0.000000001
 43
0.0000000001
 40
0.0
 40
0.0
 40
0.0
 40
0.0
 40
0.5
 40
1.0
 40
1.0
 40
1.0
 40
1.0
 10
683.0083338627282
 20
1904.677965388854
 30
0.0
 10
683.5485124137281
 20
1904.149784208243
 30
0.0
 10
684.7137553961062
 20
1903.186007287233
 30
0.0
 10
686.0487701392417
 20
1902.407401246644
 30
0.0
 10
686.7587204509986
 20
1902.064390946456
 30
0.0
1001
REVIT
1002
{
1070
     3
1000
790271
1002
}
  0
LINE
  5
9E
330
87
100
AcDbEntity
  8
M-PIPE
100
AcDbLine
 10
686.7587204509986
 20
1902.064390946456
 30
0.0
 11
689.2308735372093
 21
1904.536544032666
 31
0.0
1001
REVIT
1002
{
1070
     3
1000
790271
1002
}
  0
SPLINE
  5
9F
330
87
100
AcDbEntity
  8
M-PIPE
100
AcDbSpline
210
0.0
220
0.0
230
1.0
 70
    24
 71
     3
 72
     9
 73
     5
 74
     0
 42
0.000000001
 43
0.0000000001
 40
0.0
 40
0.0
 40
0.0
 40
0.0
 40
0.5
 40
1.0
 40
1.0
 40
1.0
 40
1.0
 10
686.7587204509986
 20
1902.064390946456
 30
0.0
 10
686.5752504452149
 20
1901.880920940672
 30
0.0
 10
686.297046093942
 20
1901.602716589399
 30
0.0
 10
686.1963130632575
 20
1901.501983558715
 30
0.0
 10
686.1903143780624
 20
1901.49598487352
 30
0.0
1001
REVIT
1002
{
1070
     3
1000
790271
1002
}
  0
LINE
  5
A0
330
87
100
AcDbEntity
  8
P-SANR-FIXT
100
AcDbLine
 10
758.1384293638854
 20
1945.634702346026
 30
0.0
 11
758.1384293638854
 21
1950.109576080178
 31
0.0
  0
LWPOLYLINE
  5
A1
330
87
100
AcDbEntity
  8
P-SANR-FIXT
100
AcDbPolyline
 90
       21
 70
   128
 43
0.0
 10
758.1384293638855
 20
1945.634702346026
 10
758.1368295772075
 20
1945.554723677652
 10
758.1320327764907
 20
1945.474872958087
 10
758.1240466355932
 20
1945.395277931448
 10
758.1128839306366
 20
1945.316065932797
 10
758.098562519568
 20
1945.237363684436
 10
758.0811053135895
 20
1945.159297093171
 10
758.0605402405069
 20
1945.081991048898
 10
758.0369002000502
 20
1945.005569224793
 10
758.0102230112413
 20
1944.930153879475
 10
757.9805513518911
 20
1944.855865661408
 10
757.9479326903253
 20
1944.782823415894
 10
757.912419209444
 20
1944.711143994943
 10
757.8740677232407
 20
1944.640942070338
 10
757.8329395859123
 20
1944.572329950184
 10
757.7891005937047
 20
1944.505417399236
 10
757.7426208796541
 20
1944.440311463301
 10
757.6935748013873
 20
1944.377116297989
 10
757.6420408221673
 20
1944.315933002083
 10
757.5881013853672
 20
1944.256859455805
 10
757.5526429262586
 20
1944.220488783653
  0
LINE
  5
A2
330
87
100
AcDbEntity
  8
P-SANR-FIXT
100
AcDbLine
 10
708.6006607437759
 20
1977.999999999996
 30
0.0
 11
679.5989669867376
 21
1948.998306242957
 31
0.0
  0
LINE
  5
A3
330
87
100
AcDbEntity
  8
P-SANR-FIXT
100
AcDbLine
 10
720.9647136861506
 20
1907.632559543544
 30
0.0
 11
757.5526429262585
 21
1944.220488783653
 31
0.0
  0
LWPOLYLINE
  5
A4
330
87
100
AcDbEntity
  8
P-SANR-FIXT
100
AcDbPolyline
 90
       21
 70
   128
 43
0.0
 10
720.964713686151
 20
1907.632559543544
 10
720.9070290073854
 20
1907.577137304796
 10
720.8471741717834
 20
1907.524066169824
 10
720.7852449343139
 20
1907.473431041123
 10
720.7213403685454
 20
1907.425312924096
 10
720.6555627081514
 20
1907.379788797468
 10
720.5880171833565
 20
1907.336931490129
 10
720.5188118525915
 20
1907.296809564628
 10
720.4480574296224
 20
1907.259487207488
 10
720.3758671064327
 20
1907.225024126518
 10
720.3023563721398
 20
1907.193475455296
 10
720.2276428282367
 20
1907.164891664966
 10
720.151846000456
 20
1907.139318483495
 10
720.0750871475529
 20
1907.116796822518
 10
719.9974890673176
 20
1907.097362711888
 10
719.9191759001254
 20
1907.081047242036
 10
719.8402729303374
 20
1907.067876514234
 10
719.7609063858741
 20
1907.057871598836
 10
719.6812032362755
 20
1907.051048501574
 10
719.6012909895788
 20
1907.047418137947
 10
719.5505001237777
 20
1907.046773105918
  0
LWPOLYLINE
  5
A5
330
87
100
AcDbEntity
  8
P-SANR-FIXT
100
AcDbPolyline
 90
       21
 70
   128
 43
0.0
 10
679.0131805491107
 20
1947.584092680584
 10
679.0147803357888
 20
1947.664071348958
 10
679.0195771365054
 20
1947.743922068523
 10
679.0275632774029
 20
1947.823517095162
 10
679.0387259823595
 20
1947.902729093813
 10
679.0530473934283
 20
1947.981431342174
 10
679.0705045994066
 20
1948.059497933439
 10
679.0910696724894
 20
1948.136803977712
 10
679.1147097129457
 20
1948.213225801817
 10
679.1413869017548
 20
1948.288641147135
 10
679.1710585611049
 20
1948.362929365202
 10
679.2036772226708
 20
1948.435971610716
 10
679.2391907035521
 20
1948.507651031667
 10
679.2775421897554
 20
1948.577852956272
 10
679.318670327084
 20
1948.646465076426
 10
679.3625093192913
 20
1948.713377627374
 10
679.4089890333422
 20
1948.778483563309
 10
679.4580351116089
 20
1948.841678728621
 10
679.509569090829
 20
1948.902862024527
 10
679.5635085276289
 20
1948.961935570805
 10
679.5989669867376
 20
1948.998306242957
  0
LINE
  5
A6
330
87
100
AcDbEntity
  8
P-SANR-FIXT
100
AcDbLine
 10
679.0131805491107
 20
1947.584092680584
 30
0.0
 11
679.0131805491107
 21
1945.230539289991
 31
0.0
  0
LINE
  5
A7
330
87
100
AcDbEntity
  8
P-SANR-FIXT
100
AcDbLine
 10
717.1969467331845
 20
1907.046773105918
 30
0.0
 11
719.5505001237777
 21
1907.046773105918
 31
0.0
  0
LINE
  5
A8
330
87
100
AcDbEntity
  8
P-SANR-FIXT
100
AcDbLine
 10
679.0131805491105
 20
1945.230539289991
 30
0.0
 11
674.3816311323387
 21
1940.59898987322
 31
0.0
  0
LINE
  5
A9
330
87
100
AcDbEntity
  8
P-SANR-FIXT
100
AcDbLine
 10
712.5653973164128
 20
1902.415223689146
 30
0.0
 11
717.1969467331846
 21
1907.046773105917
 31
0.0
  0
LINE
  5
AA
330
87
100
AcDbEntity
  8
P-SANR-FIXT
100
AcDbLine
 10
674.3816311323388
 20
1940.598989873219
 30
0.0
 11
674.3816311323388
 21
1939.184776310799
 31
0.0
  0
LINE
  5
AB
330
87
100
AcDbEntity
  8
P-SANR-FIXT
100
AcDbLine
 10
711.1511837539928
 20
1902.415223689146
 30
0.0
 11
712.5653973164125
 21
1902.415223689146
 31
0.0
  0
LINE
  5
AC
330
87
100
AcDbEntity
  8
P-SANR-FIXT
100
AcDbLine
 10
667.6664074431892
 20
1975.499999999996
 30
0.0
 11
668.8211079815682
 21
1973.499999999996
 31
0.0
  0
LINE
  5
AD
330
87
100
AcDbEntity
  8
P-SANR-FIXT
100
AcDbLine
 10
668.8211079815683
 20
2026.499999999996
 30
0.0
 11
667.6664074431892
 21
2024.499999999996
 31
0.0
  0
LINE
  5
AE
330
87
100
AcDbEntity
  8
P-SANR-FIXT
100
AcDbLine
 10
686.5117069048096
 20
2026.499999999996
 30
0.0
 11
668.8211079815681
 21
2026.499999999996
 31
0.0
  0
LINE
  5
AF
330
87
100
AcDbEntity
  8
P-SANR-FIXT
100
AcDbLine
 10
668.8211079815683
 20
1973.499999999996
 30
0.0
 11
686.5117069048101
 21
1973.499999999996
 31
0.0
  0
LINE
  5
B0
330
87
100
AcDbEntity
  8
P-SANR-FIXT
100
AcDbLine
 10
686.5117069048101
 20
1973.499999999996
 30
0.0
 11
687.6664074431892
 21
1975.499999999996
 31
0.0
  0
LINE
  5
B1
330
87
100
AcDbEntity
  8
P-SANR-FIXT
100
AcDbLine
 10
687.6664074431892
 20
2024.499999999996
 30
0.0
 11
686.5117069048096
 21
2026.499999999996
 31
0.0
  0
LINE
  5
B2
330
87
100
AcDbEntity
  8
P-SANR-FIXT
100
AcDbLine
 10
687.6664074431892
 20
1975.499999999995
 30
0.0
 11
689.4379803184425
 21
1975.499999999995
 31
0.0
  0
LINE
  5
B3
330
87
100
AcDbEntity
  8
P-SANR-FIXT
100
AcDbLine
 10
689.4379803184425
 20
2024.499999999996
 30
0.0
 11
687.6664074431892
 21
2024.499999999996
 31
0.0
  0
LWPOLYLINE
  5
B4
330
87
100
AcDbEntity
  8
P-SANR-FIXT
100
AcDbPolyline
 90
       21
 70
   128
 43
0.0
 10
689.4379803184425
 20
2024.499999999996
 10
689.5179589868158
 20
2024.498400213317
 10
689.5978097063809
 20
2024.493603412601
 10
689.6774047330204
 20
2024.485617271704
 10
689.756616731671
 20
2024.474454566747
 10
689.8353189800326
 20
2024.460133155678
 10
689.9133855712968
 20
2024.4426759497
 10
689.9906916155707
 20
2024.422110876617
 10
690.0671134396747
 20
2024.39847083616
 10
690.1425287849926
 20
2024.371793647351
 10
690.2168170030599
 20
2024.342121988001
 10
690.2898592485747
 20
2024.309503326436
 10
690.3615386695254
 20
2024.273989845554
 10
690.4317405941302
 20
2024.235638359351
 10
690.5003527142844
 20
2024.194510222022
 10
690.5672652652325
 20
2024.150671229815
 10
690.6323712011674
 20
2024.104191515764
 10
690.6955663664795
 20
2024.055145437498
 10
690.7567496623856
 20
2024.003611458278
 10
690.8158232086637
 20
2023.949672021478
 10
690.8521938808157
 20
2023.914213562369
  0
LWPOLYLINE
  5
B5
330
87
100
AcDbEntity
  8
P-SANR-FIXT
100
AcDbPolyline
 90
       21
 70
   128
 43
0.0
 10
690.8521938808157
 20
1976.085786437623
 10
690.7945092020502
 20
1976.030364198874
 10
690.7346543664482
 20
1975.977293063902
 10
690.6727251289787
 20
1975.926657935201
 10
690.6088205632102
 20
1975.878539818175
 10
690.5430429028163
 20
1975.833015691546
 10
690.4754973780215
 20
1975.790158384207
 10
690.4062920472564
 20
1975.750036458707
 10
690.3355376242873
 20
1975.712714101567
 10
690.2633473010977
 20
1975.678251020596
 10
690.1898365668045
 20
1975.646702349375
 10
690.1151230229015
 20
1975.618118559044
 10
690.0393261951209
 20
1975.592545377573
 10
689.9625673422177
 20
1975.570023716596
 10
689.8849692619826
 20
1975.550589605966
 10
689.8066560947902
 20
1975.534274136114
 10
689.7277531250023
 20
1975.521103408312
 10
689.6483865805389
 20
1975.511098492915
 10
689.5686834309404
 20
1975.504275395652
 10
689.4887711842436
 20
1975.500645032025
 10
689.4379803184425
 20
1975.499999999996
  0
LINE
  5
B6
330
87
100
AcDbEntity
  8
P-SANR-FIXT
100
AcDbLine
 10
690.8521938808157
 20
1976.085786437623
 30
0.0
 11
692.766407443189
 21
1977.999999999996
 31
0.0
  0
LINE
  5
B7
330
87
100
AcDbEntity
  8
P-SANR-FIXT
100
AcDbLine
 10
692.766407443189
 20
2021.999999999996
 30
0.0
 11
690.8521938808157
 21
2023.914213562369
 31
0.0
  0
LINE
  5
B8
330
87
100
AcDbEntity
  8
P-SANR-FIXT
100
AcDbLine
 10
692.766407443189
 20
1977.999999999996
 30
0.0
 11
708.6006607437759
 21
1977.999999999996
 31
0.0
  0
LINE
  5
B9
330
87
100
AcDbEntity
  8
P-SANR-FIXT
100
AcDbLine
 10
734.6664074431892
 20
2021.999999999996
 30
0.0
 11
726.1664074431892
 21
2021.999999999996
 31
0.0
  0
LINE
  5
BA
330
87
100
AcDbEntity
  8
P-SANR-FIXT
100
AcDbLine
 10
707.1664074431891
 20
2021.999999999996
 30
0.0
 11
692.766407443189
 21
2021.999999999996
 31
0.0
  0
LWPOLYLINE
  5
BB
330
87
100
AcDbEntity
  8
P-SANR-FIXT
100
AcDbPolyline
 90
       46
 70
   128
 43
0.0
 10
738.6664074431892
 20
1993.736380347593
 10
738.6664074431892
 20
1994.416212300403
 10
738.6664074431892
 20
1995.104977122386
 10
738.6664074431892
 20
1995.801572936758
 10
738.6664074431892
 20
1996.504885338814
 10
738.6664074431892
 20
1997.213789178744
 10
738.6664074431892
 20
1997.927150361628
 10
738.6664074431892
 20
1998.643827661749
 10
738.6664074431892
 20
1999.362674548309
 10
738.6664074431892
 20
2000.082541019637
 10
738.6664074431892
 20
2000.802275442941
 10
738.6664074431892
 20
2001.52072639668
 10
738.6664074431892
 20
2002.236744512588
 10
738.6664074431892
 20
2002.949184314422
 10
738.6664074431892
 20
2003.65690605048
 10
738.6664074431892
 20
2004.358777516955
 10
738.6664074431892
 20
2005.053675869225
 10
738.6664074431892
 20
2005.740489418165
 10
738.6664074431892
 20
2006.418119408609
 10
738.6664074431892
 20
2007.085481777124
 10
738.6664074431892
 20
2007.741508886285
 10
738.6664074431892
 20
2008.385151232662
 10
738.6664074431892
 20
2009.015379125802
 10
738.6664074431892
 20
2009.631184335521
 10
738.6664074431892
 20
2010.231581704845
 10
738.6664074431892
 20
2010.815610726063
 10
738.6664074431892
 20
2011.382337077326
 10
738.6664074431892
 20
2011.930854117367
 10
738.6664074431892
 20
2012.460284335935
 10
738.6664074431892
 20
2012.969780757616
 10
738.6664074431892
 20
2013.458528296825
 10
738.6664074431892
 20
2013.925745061758
 10
738.6664074431892
 20
2014.37068360526
 10
738.6664074431892
 20
2014.792632120576
 10
738.6664074431892
 20
2015.190915580092
 10
738.6664074431892
 20
2015.564896815235
 10
738.6664074431892
 20
2015.913977535809
 10
738.6664074431892
 20
2016.237599287126
 10
738.6664074431892
 20
2016.53524434342
 10
738.6664074431892
 20
2016.806436536095
 10
738.6664074431892
 20
2017.050742015494
 10
738.6664074431892
 20
2017.267769944966
 10
738.6664074431892
 20
2017.457173126121
 10
738.6664074431892
 20
2017.618648554272
 10
738.6664074431892
 20
2017.751937903181
 10
738.6664074431892
 20
2017.825543469971
  0
LWPOLYLINE
  5
BC
330
87
100
AcDbEntity
  8
P-SANR-FIXT
100
AcDbPolyline
 90
       20
 70
   128
 43
0.0
 10
734.6664074431892
 20
2021.999999999996
 10
734.8263647799357
 20
2021.99680042664
 10
734.9860662190659
 20
2021.987206825206
 10
735.1452562723449
 20
2021.971234543411
 10
735.3036802696461
 20
2021.948909133498
 10
735.4610847663693
 20
2021.92026631136
 10
735.6172179488976
 20
2021.885351899404
 10
735.7718300374457
 20
2021.844221753239
 10
735.9246736856536
 20
2021.796941672326
 10
736.0755043762895
 20
2021.743587294707
 10
736.2240808124237
 20
2021.684243976007
 10
736.3701653034532
 20
2021.619006652875
 10
736.513524145355
 20
2021.547979691113
 10
736.653927994564
 20
2021.471276718706
 10
736.7911522348727
 20
2021.389020444049
 10
736.9249773367694
 20
2021.301342459635
 10
737.0551892086388
 20
2021.208383031533
 10
737.1815795392629
 20
2021.110290874999
 10
737.3039461310751
 20
2021.007222916559
 10
737.3121587542534
 20
2020.999999999996
  0
LWPOLYLINE
  5
BD
330
87
100
AcDbEntity
  8
P-SANR-FIXT
100
AcDbPolyline
 90
       25
 70
   128
 43
0.0
 10
755.6664074431891
 20
2017.825543469971
 10
755.6664074431891
 20
2017.711311601019
 10
755.6664074431891
 20
2017.568745411716
 10
755.6664074431891
 20
2017.398072977554
 10
755.6664074431891
 20
2017.199567338018
 10
755.6664074431891
 20
2016.973546059787
 10
755.6664074431891
 20
2016.720370728691
 10
755.6664074431891
 20
2016.440446371251
 10
755.6664074431891
 20
2016.134220806724
 10
755.6664074431891
 20
2015.802183930691
 10
755.6664074431891
 20
2015.444866931321
 10
755.6664074431891
 20
2015.062841439591
 10
755.6664074431891
 20
2014.656718614792
 10
755.6664074431891
 20
2014.227148166809
 10
755.6664074431891
 20
2013.774817316722
 10
755.6664074431891
 20
2013.300449697399
 10
755.6664074431891
 20
2012.804804195839
 10
755.6664074431891
 20
2012.288673739111
 10
755.6664074431891
 20
2011.752884025844
 10
755.6664074431891
 20
2011.198292205285
 10
755.6664074431891
 20
2010.625785506038
 10
755.6664074431891
 20
2010.036279816695
 10
755.6664074431891
 20
2009.430718220604
 10
755.6664074431891
 20
2008.81006948714
 10
755.6664074431891
 20
2008.484037477675
  0
LWPOLYLINE
  5
BE
330
87
100
AcDbEntity
  8
P-SANR-FIXT
100
AcDbPolyline
 90
       20
 70
   128
 43
0.0
 10
757.0206561321251
 20
2020.999999999996
 10
757.1427404535353
 20
2021.103402153332
 10
757.2688621037756
 20
2021.201839525246
 10
757.3988193151097
 20
2021.295154636943
 10
757.5324041837226
 20
2021.383198204149
 10
757.6694030023207
 20
2021.465829375939
 10
757.8095966020194
 20
2021.542915960065
 10
757.9527607029656
 20
2021.614334634437
 10
758.0986662731374
 20
2021.67997114441
 10
758.2470798947479
 20
2021.739720485571
 10
758.397764137662
 20
2021.79348707172
 10
758.5504779392355
 20
2021.841184887788
 10
758.7049769899632
 20
2021.882737627445
 10
758.8610141243217
 20
2021.91807881517
 10
759.0183397161823
 20
2021.947151912605
 10
759.1767020781592
 20
2021.969910408992
 10
759.3358478642551
 20
2021.986317895595
 10
759.4955224751617
 20
2021.996348123933
 10
759.6554704655638
 20
2021.999985047782
 10
759.6664074431892
 20
2021.999999999996
  0
LINE
  5
BF
330
87
100
AcDbEntity
  8
P-SANR-FIXT
100
AcDbLine
 10
784.758108191304
 20
1977.999999999996
 30
0.0
 11
790.1664074431892
 21
1977.999999999996
 31
0.0
  0
LINE
  5
C0
330
87
100
AcDbEntity
  8
P-SANR-FIXT
100
AcDbLine
 10
790.1664074431892
 20
2021.999999999996
 30
0.0
 11
786.1664074431894
 21
2021.999999999996
 31
0.0
  0
LINE
  5
C1
330
87
100
AcDbEntity
  8
P-SANR-FIXT
100
AcDbLine
 10
767.1664074431892
 20
2021.999999999996
 30
0.0
 11
759.6664074431893
 21
2021.999999999996
 31
0.0
  0
LINE
  5
C2
330
87
100
AcDbEntity
  8
P-SANR-FIXT
100
AcDbLine
 10
814.5117069048099
 20
2026.499999999996
 30
0.0
 11
795.6664074431892
 21
2026.499999999996
 31
0.0
  0
LINE
  5
C3
330
87
100
AcDbEntity
  8
P-SANR-FIXT
100
AcDbLine
 10
795.6664074431892
 20
1973.499999999996
 30
0.0
 11
814.5117069048099
 21
1973.499999999996
 31
0.0
  0
LINE
  5
C4
330
87
100
AcDbEntity
  8
P-SANR-FIXT
100
AcDbLine
 10
814.5117069048099
 20
1973.499999999996
 30
0.0
 11
815.6664074431892
 21
1975.499999999996
 31
0.0
  0
LINE
  5
C5
330
87
100
AcDbEntity
  8
P-SANR-FIXT
100
AcDbLine
 10
815.6664074431892
 20
2024.499999999996
 30
0.0
 11
814.5117069048099
 21
2026.499999999996
 31
0.0
  0
LINE
  5
C6
330
87
100
AcDbEntity
  8
P-SANR-FIXT
100
AcDbLine
 10
767.1664074431892
 20
2027.499999999996
 30
0.0
 11
767.1664074431892
 21
2021.999999999996
 31
0.0
  0
LINE
  5
C7
330
87
100
AcDbEntity
  8
P-SANR-FIXT
100
AcDbLine
 10
786.1664074431894
 20
2021.999999999996
 30
0.0
 11
786.1664074431894
 21
2027.499999999996
 31
0.0
  0
LINE
  5
C8
330
87
100
AcDbEntity
  8
P-SANR-FIXT
100
AcDbLine
 10
707.1664074431891
 20
2027.499999999996
 30
0.0
 11
707.1664074431891
 21
2021.999999999996
 31
0.0
  0
LINE
  5
C9
330
87
100
AcDbEntity
  8
P-SANR-FIXT
100
AcDbLine
 10
726.1664074431892
 20
2021.999999999996
 30
0.0
 11
726.1664074431892
 21
2027.499999999996
 31
0.0
  0
LINE
  5
CA
330
87
100
AcDbEntity
  8
P-SANR-FIXT
100
AcDbLine
 10
786.1664074431894
 20
2027.499999999996
 30
0.0
 11
785.6664074431896
 21
2027.999999999996
 31
0.0
  0
LINE
  5
CB
330
87
100
AcDbEntity
  8
P-SANR-FIXT
100
AcDbLine
 10
767.6664074431884
 20
2027.999999999995
 30
0.0
 11
767.1664074431892
 21
2027.499999999996
 31
0.0
  0
LINE
  5
CC
330
87
100
AcDbEntity
  8
P-SANR-FIXT
100
AcDbLine
 10
726.1664074431892
 20
2027.499999999996
 30
0.0
 11
725.6664074431897
 21
2027.999999999996
 31
0.0
  0
LINE
  5
CD
330
87
100
AcDbEntity
  8
P-SANR-FIXT
100
AcDbLine
 10
707.6664074431883
 20
2027.999999999995
 30
0.0
 11
707.1664074431891
 21
2027.499999999996
 31
0.0
  0
LINE
  5
CE
330
87
100
AcDbEntity
  8
P-SANR-FIXT
100
AcDbLine
 10
790.1664074431892
 20
1977.999999999996
 30
0.0
 11
792.0806210055625
 21
1976.085786437623
 31
0.0
  0
LINE
  5
CF
330
87
100
AcDbEntity
  8
P-SANR-FIXT
100
AcDbLine
 10
792.0806210055625
 20
2023.914213562369
 30
0.0
 11
790.1664074431892
 21
2021.999999999996
 31
0.0
  0
LWPOLYLINE
  5
D0
330
87
100
AcDbEntity
  8
P-SANR-FIXT
100
AcDbPolyline
 90
       21
 70
   128
 43
0.0
 10
792.0806210055625
 20
2023.914213562369
 10
792.1383056843279
 20
2023.969635801117
 10
792.19816051993
 20
2024.02270693609
 10
792.2600897573995
 20
2024.073342064791
 10
792.3239943231676
 20
2024.121460181817
 10
792.3897719835618
 20
2024.166984308445
 10
792.4573175083566
 20
2024.209841615784
 10
792.5265228391219
 20
2024.249963541285
 10
792.5972772620907
 20
2024.287285898425
 10
792.6694675852806
 20
2024.321748979395
 10
792.7429783195736
 20
2024.353297650617
 10
792.8176918634765
 20
2024.381881440948
 10
792.8934886912571
 20
2024.407454622419
 10
792.9702475441604
 20
2024.429976283396
 10
793.0478456243954
 20
2024.449410394026
 10
793.1261587915878
 20
2024.465725863878
 10
793.2050617613757
 20
2024.47889659168
 10
793.2844283058392
 20
2024.488901507077
 10
793.3641314554378
 20
2024.49572460434
 10
793.4440437021343
 20
2024.499354967967
 10
793.4948345679355
 20
2024.499999999996
  0
LWPOLYLINE
  5
D1
330
87
100
AcDbEntity
  8
P-SANR-FIXT
100
AcDbPolyline
 90
       21
 70
   128
 43
0.0
 10
793.4948345679355
 20
1975.499999999996
 10
793.4148558995622
 20
1975.501599786674
 10
793.3350051799973
 20
1975.50639658739
 10
793.2554101533577
 20
1975.514382728288
 10
793.1761981547071
 20
1975.525545433244
 10
793.0974959063453
 20
1975.539866844313
 10
793.0194293150813
 20
1975.557324050292
 10
792.9421232708073
 20
1975.577889123374
 10
792.8657014467033
 20
1975.601529163831
 10
792.7902861013852
 20
1975.62820635264
 10
792.7159978833183
 20
1975.65787801199
 10
792.6429556378035
 20
1975.690496673556
 10
792.5712762168525
 20
1975.726010154437
 10
792.5010742922481
 20
1975.76436164064
 10
792.4324621720939
 20
1975.805489777969
 10
792.3655496211454
 20
1975.849328770176
 10
792.3004436852107
 20
1975.895808484227
 10
792.2372485198986
 20
1975.944854562493
 10
792.1760652239927
 20
1975.996388541714
 10
792.1169916777143
 20
1976.050327978514
 10
792.0806210055625
 20
1976.085786437623
  0
LINE
  5
D2
330
87
100
AcDbEntity
  8
P-SANR-FIXT
100
AcDbLine
 10
793.4948345679355
 20
1975.499999999995
 30
0.0
 11
794.5117069048099
 21
1975.499999999995
 31
0.0
  0
LINE
  5
D3
330
87
100
AcDbEntity
  8
P-SANR-FIXT
100
AcDbLine
 10
794.5117069048099
 20
2024.499999999996
 30
0.0
 11
793.4948345679355
 21
2024.499999999996
 31
0.0
  0
LINE
  5
D4
330
87
100
AcDbEntity
  8
P-SANR-FIXT
100
AcDbLine
 10
794.5117069048099
 20
1975.499999999996
 30
0.0
 11
795.6664074431892
 21
1973.499999999996
 31
0.0
  0
LINE
  5
D5
330
87
100
AcDbEntity
  8
P-SANR-FIXT
100
AcDbLine
 10
795.6664074431892
 20
2026.499999999996
 30
0.0
 11
794.5117069048099
 21
2024.499999999996
 31
0.0
  0
LWPOLYLINE
  5
D6
330
87
100
AcDbEntity
  8
P-SANR-FIXT
100
AcDbPolyline
 90
       19
 70
   128
 43
0.0
 10
784.758108191304
 20
1977.999999999996
 10
784.738655381261
 20
1977.841197685686
 10
784.7128677325745
 20
1977.683300301211
 10
784.6807864999817
 20
1977.526560448704
 10
784.6424630066106
 20
1977.371228878492
 10
784.5979585618757
 20
1977.217554087952
 10
784.5473443633949
 20
1977.065781923966
 10
784.4907013830883
 20
1976.916155189621
 10
784.4281202376414
 20
1976.768913255774
 10
784.3597010435368
 20
1976.624291678107
 10
784.2855532568903
 20
1976.482521820295
 10
784.2057954983427
 20
1976.343830483867
 10
784.1205553632935
 20
1976.208439545376
 10
784.0299692177755
 20
1976.076565601441
 10
783.9341819802974
 20
1975.948419622241
 10
783.8333468900056
 20
1975.824206614007
 10
783.7276252615342
 20
1975.704125291055
 10
783.6171862269362
 20
1975.588367757884
 10
783.6072804084489
 20
1975.578427124742
  0
LINE
  5
D7
330
87
100
AcDbEntity
  8
P-SANR-FIXT
100
AcDbLine
 10
758.1384293638855
 20
1950.109576080178
 30
0.0
 11
783.6072804084489
 21
1975.578427124742
 31
0.0
  0
LWPOLYLINE
  5
D8
330
87
100
AcDbEntity
  8
P-SANR-FIXT
100
AcDbPolyline
 90
       41
 70
   128
 43
0.0
 10
672.2603107887618
 20
1937.063455967258
 10
672.2325996693874
 20
1937.09229830664
 10
672.2060641019013
 20
1937.122225724441
 10
672.1807465375507
 20
1937.153190343176
 10
672.1566874790375
 20
1937.18514262606
 10
672.1339254157234
 20
1937.218031456257
 10
672.1124967620538
 20
1937.251804218655
 10
672.0924357993036
 20
1937.286406884037
 10
672.0737746207334
 20
1937.321784095521
 10
672.0565430802486
 20
1937.357879257116
 10
672.0407687446376
 20
1937.394634624263
 10
672.0264768494725
 20
1937.431991396215
 10
672.0136902587369
 20
1937.469889810105
 10
672.0024294282483
 20
1937.508269236557
 10
671.9927123729331
 20
1937.547068276674
 10
671.9845546380073
 20
1937.58622486027
 10
671.9779692741063
 20
1937.625676345164
 10
671.9729668164076
 20
1937.665359617396
 10
671.9695552677763
 20
1937.705211192195
 10
671.9677400859626
 20
1937.745167315543
 10
671.9675241748701
 20
1937.785164066166
 10
671.9689078799104
 20
1937.825137457797
 10
671.9718889874512
 20
1937.865023541534
 10
671.9764627283553
 20
1937.904758508152
 10
671.982621785614
 20
1937.944278790183
 10
671.9903563060487
 20
1937.983521163603
 10
671.9996539160771
 20
1938.022422848988
 10
672.0104997415066
 20
1938.06092161194
 10
672.0228764313301
 20
1938.09895586265
 10
672.0367641854839
 20
1938.13646475443
 10
672.0521407865239
 20
1938.173388281056
 10
672.0689816351688
 20
1938.209667372762
 10
672.0872597896534
 20
1938.245243990739
 10
672.1069460088296
 20
1938.280061219988
 10
672.1280087989457
 20
1938.31406336037
 10
672.1504144640313
 20
1938.347196015714
 10
672.1741271598016
 20
1938.379406180838
 10
672.1991089510019
 20
1938.410642326351
 10
672.2253198720956
 20
1938.440854481081
 10
672.2527179911998
 20
1938.469994312027
 10
672.2603107887618
 20
1938.47766952963
  0
LWPOLYLINE
  5
D9
330
87
100
AcDbEntity
  8
P-SANR-FIXT
100
AcDbPolyline
 90
       41
 70
   128
 43
0.0
 10
710.4440769728548
 20
1900.293903345538
 10
710.4152346334721
 20
1900.266192226163
 10
710.385307215671
 20
1900.239656658677
 10
710.3543425969363
 20
1900.214339094327
 10
710.3223903140522
 20
1900.190280035813
 10
710.2895014838551
 20
1900.167517972499
 10
710.2557287214578
 20
1900.14608931883
 10
710.2211260560753
 20
1900.126028356079
 10
710.1857488445907
 20
1900.107367177509
 10
710.1496536829959
 20
1900.090135637024
 10
710.1128983158494
 20
1900.074361301413
 10
710.0755415438977
 20
1900.060069406248
 10
710.0376431300075
 20
1900.047282815513
 10
709.9992637035557
 20
1900.036021985024
 10
709.9604646634381
 20
1900.026304929709
 10
709.9213080798421
 20
1900.018147194783
 10
709.8818565949482
 20
1900.011561830882
 10
709.8421733227166
 20
1900.006559373183
 10
709.8023217479172
 20
1900.003147824552
 10
709.7623656245689
 20
1900.001332642738
 10
709.7223688739453
 20
1900.001116731646
 10
709.6823954823154
 20
1900.002500436686
 10
709.6425093985784
 20
1900.005481544227
 10
709.6027744319597
 20
1900.010055285131
 10
709.5632541499298
 20
1900.016214342389
 10
709.5240117765089
 20
1900.023948862824
 10
709.4851100911239
 20
1900.033246472853
 10
709.4466113281725
 20
1900.044092298282
 10
709.4085770774626
 20
1900.056468988106
 10
709.3710681856819
 20
1900.07035674226
 10
709.3341446590559
 20
1900.0857333433
 10
709.2978655673506
 20
1900.102574191945
 10
709.2622889493736
 20
1900.120852346429
 10
709.2274717201243
 20
1900.140538565605
 10
709.1934695797422
 20
1900.161601355722
 10
709.1603369243988
 20
1900.184007020807
 10
709.1281267592741
 20
1900.207719716577
 10
709.0968906137619
 20
1900.232701507778
 10
709.0666784590311
 20
1900.258912428871
 10
709.0375386280847
 20
1900.286310547976
 10
709.0298634104819
 20
1900.293903345538
  0
LWPOLYLINE
  5
DA
330
87
100
AcDbEntity
  8
P-SANR-FIXT
100
AcDbPolyline
 90
        3
 70
   128
 43
0.0
 10
709.0298634104819
 20
1900.293903345538
 10
709.0151575503713
 20
1900.308609205648
 10
708.9840040970158
 20
1900.339762659003
  0
LWPOLYLINE
  5
DB
330
87
100
AcDbEntity
  8
P-SANR-FIXT
100
AcDbPolyline
 90
        3
 70
   128
 43
0.0
 10
672.2951725146267
 20
1937.028594241392
 10
672.2645965060147
 20
1937.059170250004
 10
672.2603107887618
 20
1937.063455967258
  0
LINE
  5
DC
330
87
100
AcDbEntity
  8
P-SANR-FIXT
100
AcDbLine
 10
785.6664074431892
 20
2027.999999999995
 30
0.0
 11
785.6664074431892
 21
2029.999999999994
 31
0.0
  0
LINE
  5
DD
330
87
100
AcDbEntity
  8
P-SANR-FIXT
100
AcDbLine
 10
767.6664074431881
 20
2029.999999999994
 30
0.0
 11
767.6664074431881
 21
2027.999999999995
 31
0.0
  0
LINE
  5
DE
330
87
100
AcDbEntity
  8
P-SANR-FIXT
100
AcDbLine
 10
725.6664074431894
 20
2027.999999999995
 30
0.0
 11
725.6664074431894
 21
2029.999999999994
 31
0.0
  0
LINE
  5
DF
330
87
100
AcDbEntity
  8
P-SANR-FIXT
100
AcDbLine
 10
707.6664074431878
 20
2029.999999999994
 30
0.0
 11
707.6664074431878
 21
2027.999999999995
 31
0.0
  0
LWPOLYLINE
  5
E0
330
87
100
AcDbEntity
  8
P-SANR-FIXT
100
AcDbPolyline
 90
       80
 70
   128
 43
0.0
 10
672.2603107887618
 20
1937.063455967258
 10
672.2750166488721
 20
1937.048750107147
 10
672.3191107029643
 20
1937.004656053055
 10
672.3925224099582
 20
1936.931244346061
 10
672.4951343267828
 20
1936.828632429237
 10
672.6267822962603
 20
1936.696984459759
 10
672.7872557097232
 20
1936.536511046296
 10
672.9762978439427
 20
1936.347468912076
 10
673.1936062718304
 20
1936.130160484189
 10
673.4388333462585
 20
1935.88493340976
 10
673.7115867562201
 20
1935.612179999799
 10
674.011430154444
 20
1935.312336601575
 10
674.3378838554559
 20
1934.985882900563
 10
674.6904256029741
 20
1934.633341153045
 10
675.0684914054073
 20
1934.255275350612
 10
675.4714764381212
 20
1933.852290317898
 10
675.8987360110292
 20
1933.42503074499
 10
676.3495865999585
 20
1932.97418015606
 10
676.8233069401433
 20
1932.500459815876
 10
677.3191391800938
 20
1932.004627575925
 10
677.8362900939987
 20
1931.48747666202
 10
678.3739323507147
 20
1930.949834405304
 10
678.9312058373224
 20
1930.392560918697
 10
679.5072190351215
 20
1929.816547720898
 10
680.1010504458719
 20
1929.222716310147
 10
680.7117500659941
 20
1928.612016690025
 10
681.338340906371
 20
1927.985425849648
 10
681.9798205553239
 20
1927.343946200695
 10
682.635162782256
 20
1926.688603973763
 10
683.3033191794032
 20
1926.020447576616
 10
683.9832208390625
 20
1925.340545916957
 10
684.6737800636163
 20
1924.649986692403
 10
685.3738921056168
 20
1923.949874650402
 10
686.0824369351461
 20
1923.241329820873
 10
686.7982810316251
 20
1922.525485724394
 10
687.5202791972047
 20
1921.803487558814
 10
688.2472763888383
 20
1921.076490367181
 10
688.9781095661033
 20
1920.345657189916
 10
689.7116095518186
 20
1919.6121572042
 10
690.4466029024797
 20
1918.877163853539
 10
691.1819137855149
 20
1918.141852970504
 10
691.9163658603696
 20
1917.40740089565
 10
692.6487841603988
 20
1916.67498259562
 10
693.3779969725634
 20
1915.945769783456
 10
694.102837711921
 20
1915.220929044098
 10
694.8221467879131
 20
1914.501619968106
 10
695.5347734594623
 20
1913.788993296557
 10
696.2395776759133
 20
1913.084189080106
 10
696.9354319008697
 20
1912.388334855149
 10
697.621222916013
 20
1911.702543840006
 10
698.2958536020129
 20
1911.027913154006
 10
698.9582446936855
 20
1910.365522062334
 10
699.6073365065866
 20
1909.716430249432
 10
700.2420906322813
 20
1909.081676123738
 10
700.8614915995751
 20
1908.462275156444
 10
701.4645484990524
 20
1907.859218256967
 10
702.0502965683195
 20
1907.2734701877
 10
702.6177987354178
 20
1906.705968020601
 10
703.1661471179416
 20
1906.157619638078
 10
703.6944644754528
 20
1905.629302280566
 10
704.2019056128815
 20
1905.121861143138
 10
704.6876587326559
 20
1904.636108023363
 10
705.1509467334065
 20
1904.172820022613
 10
705.5910284531612
 20
1903.732738302858
 10
706.0071998550476
 20
1903.316566900971
 10
706.3987951536015
 20
1902.924971602418
 10
706.7651878798808
 20
1902.558578876138
 10
707.1057918836831
 20
1902.217974872336
 10
707.4200622712606
 20
1901.903704484758
 10
707.707496277034
 20
1901.616270478985
 10
707.96763406791
 20
1901.356132688109
 10
708.2000594789165
 20
1901.123707277103
 10
708.4044006789769
 20
1900.919366077042
 10
708.5803307657619
 20
1900.743435990257
 10
708.7275682886626
 20
1900.596198467357
 10
708.8458776990507
 20
1900.477889056968
 10
708.9350697271084
 20
1900.388697028911
 10
708.9950016846167
 20
1900.328765071403
 10
709.0255776932287
 20
1900.29818906279
 10
709.0298634104819
 20
1900.293903345538
  0
LINE
  5
E1
330
87
100
AcDbEntity
  8
P-SANR-FIXT
100
AcDbLine
 10
710.4440769728548
 20
1900.293903345538
 30
0.0
 11
711.858290535228
 21
1901.70811690791
 31
0.0
  0
LINE
  5
E2
330
87
100
AcDbEntity
  8
P-SANR-FIXT
100
AcDbLine
 10
673.6745243511347
 20
1939.891883092003
 30
0.0
 11
672.2603107887618
 21
1938.47766952963
 31
0.0
  0
LINE
  5
E3
330
87
100
AcDbEntity
  8
P-SANR-FIXT
100
AcDbLine
 10
700.701865115883
 20
1907.914794858999
 30
0.0
 11
701.4513874818412
 21
1907.828025190045
 31
0.0
  0
LINE
  5
E4
330
87
100
AcDbEntity
  8
P-SANR-FIXT
100
AcDbLine
 10
679.7944326332688
 20
1929.484980038617
 30
0.0
 11
679.8812023022216
 21
1928.73545767267
 31
0.0
  0
LINE
  5
E5
330
87
100
AcDbEntity
  8
P-SANR-FIXT
100
AcDbLine
 10
758.138429363884
 20
1950.109576080178
 30
0.0
 11
725.1020566351288
 21
1983.145948808932
 31
0.0
  0
SPLINE
  5
E6
330
87
100
AcDbEntity
  8
P-SANR-FIXT
100
AcDbSpline
210
0.0
220
0.0
230
1.0
 70
     8
 71
     3
 72
     9
 73
     5
 74
     0
 42
0.000000001
 43
0.0000000001
 40
-1.0
 40
-1.0
 40
-1.0
 40
-1.0
 40
-0.5
 40
0.0
 40
0.0
 40
0.0
 40
0.0
 10
725.1020566351288
 20
1983.145948808932
 30
0.0
 10
724.3129681802094
 20
1983.193590917087
 30
0.0
 10
722.7342195863508
 20
1983.28518020757
 30
0.0
 10
721.1543276244526
 20
1983.369077684207
 30
0.0
 10
720.3640958014938
 20
1983.409035908415
 30
0.0
  0
SPLINE
  5
E7
330
87
100
AcDbEntity
  8
P-SANR-FIXT
100
AcDbSpline
210
0.0
220
0.0
230
1.0
 70
     8
 71
     3
 72
    11
 73
     7
 74
     0
 42
0.000000001
 43
0.0000000001
 40
-1.0
 40
-1.0
 40
-1.0
 40
-1.0
 40
-0.75
 40
-0.5
 40
-0.25
 40
0.0
 40
0.0
 40
0.0
 40
0.0
 10
720.3640958014938
 20
1983.409035908415
 30
0.0
 10
720.2142780149576
 20
1983.415745822285
 30
0.0
 10
719.9195862883758
 20
1983.409822499132
 30
0.0
 10
719.4854659773116
 20
1983.339777614751
 30
0.0
 10
719.0800057270474
 20
1983.219328953776
 30
0.0
 10
718.8364074362294
 20
1983.112650447047
 30
0.0
 10
718.7206519402023
 20
1983.052479769706
 30
0.0
  0
SPLINE
  5
E8
330
87
100
AcDbEntity
  8
P-SANR-FIXT
100
AcDbSpline
210
0.0
220
0.0
230
1.0
 70
     8
 71
     3
 72
    21
 73
    17
 74
     0
 42
0.000000001
 43
0.0000000001
 40
0.0
 40
0.0
 40
0.0
 40
0.0
 40
0.1666666666666666
 40
0.25
 40
0.2916666666666666
 40
0.3333333333333333
 40
0.375
 40
0.4166666666666666
 40
0.5
 40
0.5833333333333333
 40
0.625
 40
0.6666666666666666
 40
0.7083333333333333
 40
0.75
 40
0.8333333333333332
 40
1.0
 40
1.0
 40
1.0
 40
1.0
 10
718.7206519402023
 20
1983.052479769706
 30
0.0
 10
717.8908010473671
 20
1982.60234557464
 30
0.0
 10
716.681784855119
 20
1981.974509723835
 30
0.0
 10
715.3479676848943
 20
1981.312230937952
 30
0.0
 10
714.6091260511995
 20
1980.950784836507
 30
0.0
 10
714.0693771834539
 20
1980.689976151635
 30
0.0
 10
713.5358464773068
 20
1980.429243520304
 30
0.0
 10
712.8287623072205
 20
1980.075795818042
 30
0.0
 10
711.9727180855468
 20
1979.641690331651
 30
0.0
 10
711.1921793493213
 20
1979.250083387777
 30
0.0
 10
710.6367613944885
 20
1978.980977526191
 30
0.0
 10
710.2630853737271
 20
1978.808198668202
 30
0.0
 10
709.9296633763771
 20
1978.65967398844
 30
0.0
 10
709.5280819892744
 20
1978.480185363449
 30
0.0
 10
708.9490871633978
 20
1978.219523707278
 30
0.0
 10
708.6742339534922
 20
1978.073573209712
 30
0.0
 10
708.6006607437748
 20
1977.999999999995
 30
0.0
  0
LINE
  5
E9
330
87
100
AcDbEntity
  8
P-SANR-FIXT
100
AcDbLine
 10
679.0131805491092
 20
1945.230539289991
 30
0.0
 11
717.1969467331834
 21
1907.046773105917
 31
0.0
  0
LINE
  5
EA
330
87
100
AcDbEntity
  8
P-SANR-FIXT
100
AcDbLine
 10
674.3816311323375
 20
1940.598989873218
 30
0.0
 11
712.5653973164111
 21
1902.415223689145
 31
0.0
  0
LINE
  5
EB
330
87
100
AcDbEntity
  8
P-SANR-FIXT
100
AcDbLine
 10
815.6664074431878
 20
2024.499999999995
 30
0.0
 11
815.6664074431878
 21
1975.499999999995
 31
0.0
  0
LINE
  5
EC
330
87
100
AcDbEntity
  8
P-SANR-FIXT
100
AcDbLine
 10
667.6664074431878
 20
1975.499999999995
 30
0.0
 11
667.6664074431878
 21
2024.499999999994
 31
0.0
  0
SPLINE
  5
ED
330
87
100
AcDbEntity
  8
P-SANR-FIXT
100
AcDbSpline
210
0.0
220
0.0
230
1.0
 70
     8
 71
     3
 72
     9
 73
     5
 74
     0
 42
0.000000001
 43
0.0000000001
 40
-1.0
 40
-1.0
 40
-1.0
 40
-1.0
 40
-0.5
 40
0.0
 40
0.0
 40
0.0
 40
0.0
 10
668.8211079815673
 20
1973.954765947572
 30
0.0
 10
668.2437858892186
 20
1975.439799028198
 30
0.0
 10
667.6664637968701
 20
1978.389698428094
 30
0.0
 10
668.2437858892187
 20
1981.299264305279
 30
0.0
 10
668.8211079815673
 20
1982.743963863195
 30
0.0
  0
SPLINE
  5
EE
330
87
100
AcDbEntity
  8
P-SANR-FIXT
100
AcDbSpline
210
0.0
220
0.0
230
1.0
 70
     8
 71
     3
 72
     9
 73
     5
 74
     0
 42
0.000000001
 43
0.0000000001
 40
-1.0
 40
-1.0
 40
-1.0
 40
-1.0
 40
-0.5
 40
0.0
 40
0.0
 40
0.0
 40
0.0
 10
668.8211079815673
 20
1991.210802084371
 30
0.0
 10
668.2437858892186
 20
1994.180868245623
 30
0.0
 10
667.6664637968699
 20
2000.080667045415
 30
0.0
 10
668.2437858892186
 20
2005.899798799787
 30
0.0
 10
668.8211079815673
 20
2008.789197915618
 30
0.0
  0
SPLINE
  5
EF
330
87
100
AcDbEntity
  8
P-SANR-FIXT
100
AcDbSpline
210
0.0
220
0.0
230
1.0
 70
     8
 71
     3
 72
     9
 73
     5
 74
     0
 42
0.000000001
 43
0.0000000001
 40
-1.0
 40
-1.0
 40
-1.0
 40
-1.0
 40
-0.5
 40
0.0
 40
0.0
 40
0.0
 40
0.0
 10
668.8211079815673
 20
2017.256036136794
 30
0.0
 10
668.2437858892186
 20
2018.74106921742
 30
0.0
 10
667.6664637968699
 20
2021.690968617316
 30
0.0
 10
668.2437858892186
 20
2024.600534494502
 30
0.0
 10
668.8211079815673
 20
2026.045234052418
 30
0.0
  0
LINE
  5
F0
330
87
100
AcDbEntity
  8
P-SANR-FIXT
100
AcDbLine
 10
668.8211079815673
 20
1982.743963863195
 30
0.0
 11
668.8211079815673
 21
1991.210802084371
 31
0.0
  0
LINE
  5
F1
330
87
100
AcDbEntity
  8
P-SANR-FIXT
100
AcDbLine
 10
668.8211079815673
 20
1982.743963863195
 30
0.0
 11
686.5117069048085
 21
1982.743963863195
 31
0.0
  0
LINE
  5
F2
330
87
100
AcDbEntity
  8
P-SANR-FIXT
100
AcDbLine
 10
686.5117069048085
 20
1991.210802084371
 30
0.0
 11
668.8211079815673
 21
1991.210802084371
 31
0.0
  0
LINE
  5
F3
330
87
100
AcDbEntity
  8
P-SANR-FIXT
100
AcDbLine
 10
668.8211079815673
 20
2008.789197915617
 30
0.0
 11
668.8211079815673
 21
2017.256036136794
 31
0.0
  0
LINE
  5
F4
330
87
100
AcDbEntity
  8
P-SANR-FIXT
100
AcDbLine
 10
668.8211079815673
 20
2008.789197915618
 30
0.0
 11
686.5117069048085
 21
2008.789197915618
 31
0.0
  0
LINE
  5
F5
330
87
100
AcDbEntity
  8
P-SANR-FIXT
100
AcDbLine
 10
686.5117069048085
 20
2017.256036136794
 30
0.0
 11
668.8211079815673
 21
2017.256036136794
 31
0.0
  0
LINE
  5
F6
330
87
100
AcDbEntity
  8
P-SANR-FIXT
100
AcDbLine
 10
668.8211079815669
 20
2026.045234052418
 30
0.0
 11
668.8211079815669
 21
2026.499999999995
 31
0.0
  0
LINE
  5
F7
330
87
100
AcDbEntity
  8
P-SANR-FIXT
100
AcDbLine
 10
668.8211079815673
 20
2026.045234052418
 30
0.0
 11
686.5117069048085
 21
2026.045234052418
 31
0.0
  0
LINE
  5
F8
330
87
100
AcDbEntity
  8
P-SANR-FIXT
100
AcDbLine
 10
686.5117069048085
 20
1973.954765947572
 30
0.0
 11
668.8211079815673
 21
1973.954765947572
 31
0.0
  0
LINE
  5
F9
330
87
100
AcDbEntity
  8
P-SANR-FIXT
100
AcDbLine
 10
668.8211079815673
 20
1973.499999999995
 30
0.0
 11
668.8211079815673
 21
1973.954765947572
 31
0.0
  0
LINE
  5
FA
330
87
100
AcDbEntity
  8
P-SANR-FIXT
100
AcDbLine
 10
686.5117069048087
 20
2026.045234052417
 30
0.0
 11
686.5117069048087
 21
2026.499999999995
 31
0.0
  0
SPLINE
  5
FB
330
87
100
AcDbEntity
  8
P-SANR-FIXT
100
AcDbSpline
210
0.0
220
0.0
230
1.0
 70
     8
 71
     3
 72
     9
 73
     5
 74
     0
 42
0.000000001
 43
0.0000000001
 40
-1.0
 40
-1.0
 40
-1.0
 40
-1.0
 40
-0.5
 40
0.0
 40
0.0
 40
0.0
 40
0.0
 10
686.5117069048085
 20
2026.045234052418
 30
0.0
 10
687.0890289971571
 20
2024.600534494502
 30
0.0
 10
687.6663510895057
 20
2021.690968617316
 30
0.0
 10
687.0890289971571
 20
2018.74106921742
 30
0.0
 10
686.5117069048085
 20
2017.256036136794
 30
0.0
  0
LINE
  5
FC
330
87
100
AcDbEntity
  8
P-SANR-FIXT
100
AcDbLine
 10
686.5117069048085
 20
2008.789197915617
 30
0.0
 11
686.5117069048085
 21
2017.256036136794
 31
0.0
  0
SPLINE
  5
FD
330
87
100
AcDbEntity
  8
P-SANR-FIXT
100
AcDbSpline
210
0.0
220
0.0
230
1.0
 70
     8
 71
     3
 72
     9
 73
     5
 74
     0
 42
0.000000001
 43
0.0000000001
 40
-1.0
 40
-1.0
 40
-1.0
 40
-1.0
 40
-0.5
 40
0.0
 40
0.0
 40
0.0
 40
0.0
 10
686.5117069048085
 20
2008.789197915618
 30
0.0
 10
687.0890289971571
 20
2005.899798799787
 30
0.0
 10
687.6663510895057
 20
2000.080667045415
 30
0.0
 10
687.0890289971571
 20
1994.180868245623
 30
0.0
 10
686.5117069048085
 20
1991.210802084371
 30
0.0
  0
LINE
  5
FE
330
87
100
AcDbEntity
  8
P-SANR-FIXT
100
AcDbLine
 10
686.5117069048085
 20
1982.743963863195
 30
0.0
 11
686.5117069048085
 21
1991.210802084371
 31
0.0
  0
SPLINE
  5
FF
330
87
100
AcDbEntity
  8
P-SANR-FIXT
100
AcDbSpline
210
0.0
220
0.0
230
1.0
 70
     8
 71
     3
 72
     9
 73
     5
 74
     0
 42
0.000000001
 43
0.0000000001
 40
-1.0
 40
-1.0
 40
-1.0
 40
-1.0
 40
-0.5
 40
0.0
 40
0.0
 40
0.0
 40
0.0
 10
686.5117069048085
 20
1982.743963863195
 30
0.0
 10
687.0890289971571
 20
1981.299264305279
 30
0.0
 10
687.6663510895057
 20
1978.389698428094
 30
0.0
 10
687.0890289971571
 20
1975.439799028198
 30
0.0
 10
686.5117069048085
 20
1973.954765947572
 30
0.0
  0
LINE
  5
100
330
87
100
AcDbEntity
  8
P-SANR-FIXT
100
AcDbLine
 10
686.5117069048085
 20
1973.499999999995
 30
0.0
 11
686.5117069048085
 21
1973.954765947572
 31
0.0
  0
LINE
  5
101
330
87
100
AcDbEntity
  8
P-SANR-FIXT
100
AcDbLine
 10
687.6664074431878
 20
1975.499999999995
 30
0.0
 11
687.6664074431878
 21
2024.499999999995
 31
0.0
  0
LINE
  5
102
330
87
100
AcDbEntity
  8
P-SANR-FIXT
100
AcDbLine
 10
692.7664074431877
 20
1977.999999999995
 30
0.0
 11
692.7664074431877
 21
2021.999999999995
 31
0.0
  0
SPLINE
  5
103
330
87
100
AcDbEntity
  8
P-SANR-FIXT
100
AcDbSpline
210
0.0
220
0.0
230
1.0
 70
     8
 71
     3
 72
    25
 73
    21
 74
     0
 42
0.000000001
 43
0.0000000001
 40
0.0
 40
0.0
 40
0.0
 40
0.0
 40
0.1111111111111111
 40
0.2222222222222222
 40
0.2777777777777778
 40
0.3333333333333333
 40
0.3611111111111111
 40
0.3888888888888888
 40
0.4444444444444445
 40
0.4791666666666666
 40
0.5138888888888889
 40
0.5486111111111111
 40
0.5833333333333333
 40
0.6180555555555555
 40
0.6527777777777777
 40
0.6875
 40
0.7222222222222223
 40
0.7916666666666668
 40
0.861111111111111
 40
1.0
 40
1.0
 40
1.0
 40
1.0
 10
726.1664074431878
 20
2021.999999999995
 30
0.0
 10
726.1492246701597
 20
2021.999999999995
 30
0.0
 10
725.7710803123177
 20
2021.82162291418
 30
0.0
 10
724.3586576751043
 20
2021.26300300807
 30
0.0
 10
722.8094055401931
 20
2020.761208182305
 30
0.0
 10
721.6850203687573
 20
2020.457523702635
 30
0.0
 10
720.7192468766518
 20
2020.25057908575
 30
0.0
 10
719.6834192941174
 20
2020.061752275616
 30
0.0
 10
718.5452512541672
 20
2019.915079577775
 30
0.0
 10
717.3094923743731
 20
2019.847732692271
 30
0.0
 10
716.2397848332175
 20
2019.842191707314
 30
0.0
 10
715.1948009621833
 20
2019.888642389822
 30
0.0
 10
714.1929801741094
 20
2019.988590111898
 30
0.0
 10
713.1904500956794
 20
2020.140392881923
 30
0.0
 10
712.2389149579547
 20
2020.3258785517
 30
0.0
 10
711.3713270784899
 20
2020.530675754076
 30
0.0
 10
710.266039147388
 20
2020.839583511051
 30
0.0
 10
709.0937840026322
 20
2021.228610799347
 30
0.0
 10
707.6275591969338
 20
2021.790136313736
 30
0.0
 10
707.1875871350049
 20
2021.999999999995
 30
0.0
 10
707.1664074431879
 20
2021.999999999995
 30
0.0
  0
SPLINE
  5
104
330
87
100
AcDbEntity
  8
P-SANR-FIXT
100
AcDbSpline
210
0.0
220
0.0
230
1.0
 70
     8
 71
     3
 72
     9
 73
     5
 74
     0
 42
0.000000001
 43
0.0000000001
 40
-0.75
 40
-0.75
 40
-0.75
 40
-0.75
 40
-0.5
 40
0.0
 40
0.0
 40
0.0
 40
0.0
 10
738.5628691860203
 20
2018.735814453549
 30
0.0
 10
738.4952068328844
 20
2019.031646074032
 30
0.0
 10
738.1945590561155
 20
2019.89090977641
 30
0.0
 10
737.6170218911709
 20
2020.616384669071
 30
0.0
 10
737.1338545798121
 20
2020.999999999995
 30
0.0
  0
SPLINE
  5
105
330
87
100
AcDbEntity
  8
P-SANR-FIXT
100
AcDbSpline
210
0.0
220
0.0
230
1.0
 70
     8
 71
     3
 72
    15
 73
    11
 74
     0
 42
0.000000001
 43
0.0000000001
 40
-1.0
 40
-1.0
 40
-1.0
 40
-1.0
 40
-0.9
 40
-0.8
 40
-0.7000000000000001
 40
-0.6000000000000001
 40
-0.5
 40
-0.4
 40
-0.2
 40
-0.1000000000000001
 40
-0.1000000000000001
 40
-0.1000000000000001
 40
-0.1000000000000001
 10
742.2329134814669
 20
2008.729410589957
 30
0.0
 10
742.1154617135564
 20
2008.607424125604
 30
0.0
 10
741.8603526795761
 20
2008.397662363729
 30
0.0
 10
741.4058059457371
 20
2008.177558821589
 30
0.0
 10
740.9131760941992
 20
2008.076277579569
 30
0.0
 10
740.410142505079
 20
2008.099859128078
 30
0.0
 10
739.9288257957249
 20
2008.247076773658
 30
0.0
 10
739.3534945739946
 20
2008.591805171335
 30
0.0
 10
738.9252044434997
 20
2009.127391293814
 30
0.0
 10
738.7601086263414
 20
2009.597677202858
 30
0.0
 10
738.7230483669863
 20
2009.759472888562
 30
0.0
  0
SPLINE
  5
106
330
87
100
AcDbEntity
  8
P-SANR-FIXT
100
AcDbSpline
210
0.0
220
0.0
230
1.0
 70
     8
 71
     3
 72
     8
 73
     4
 74
     0
 42
0.000000001
 43
0.0000000001
 40
-0.0718825110255405
 40
-0.0718825110255405
 40
-0.0718825110255405
 40
-0.0718825110255405
 40
0.0
 40
0.0
 40
0.0
 40
0.0
 10
738.6960634995521
 20
2009.897087895215
 30
0.0
 10
738.6767238752834
 20
2010.015278400512
 30
0.0
 10
738.6667611660883
 20
2010.135693861287
 30
0.0
 10
738.6664074431878
 20
2010.25737299674
 30
0.0
  0
ARC
  5
107
330
87
100
AcDbEntity
  8
P-SANR-FIXT
100
AcDbCircle
 10
1080.609900842236
 20
1683.073864378108
 30
0.0
 40
469.6280659776282
100
AcDbArc
 50
135.6587433929072
 51
136.0975301620124
  0
ARC
  5
108
330
87
100
AcDbEntity
  8
P-SANR-FIXT
100
AcDbCircle
 10
1718.642170082399
 20
1058.551891068601
 30
0.0
 40
1362.439746712923
100
AcDbArc
 50
135.2443144914835
 51
135.6288234506669
  0
LINE
  5
109
330
87
100
AcDbEntity
  8
P-SANR-FIXT
100
AcDbLine
 10
755.6664074431879
 20
2017.825543469971
 30
0.0
 11
751.1525715689542
 21
2017.825543469971
 31
0.0
  0
LINE
  5
10A
330
87
100
AcDbEntity
  8
P-SANR-FIXT
100
AcDbLine
 10
751.1525715689542
 20
2006.187437561621
 30
0.0
 11
751.1525715689542
 21
2017.825543469971
 31
0.0
  0
SPLINE
  5
10B
330
87
100
AcDbEntity
  8
P-SANR-FIXT
100
AcDbSpline
210
0.0
220
0.0
230
1.0
 70
     8
 71
     3
 72
     9
 73
     5
 74
     0
 42
0.000000001
 43
0.0000000001
 40
-1.0
 40
-1.0
 40
-1.0
 40
-1.0
 40
-0.5
 40
-0.25
 40
-0.25
 40
-0.25
 40
-0.25
 10
757.1989603065623
 20
2020.999999999995
 30
0.0
 10
756.7157929952042
 20
2020.61638466907
 30
0.0
 10
756.13825583026
 20
2019.89090977641
 30
0.0
 10
755.8376080534912
 20
2019.031646074032
 30
0.0
 10
755.7699457003553
 20
2018.735814453549
 30
0.0
  0
LINE
  5
10C
330
87
100
AcDbEntity
  8
P-SANR-FIXT
100
AcDbLine
 10
755.6664074431879
 20
2008.484037477674
 30
0.0
 11
755.6664074431879
 21
2017.825543469971
 31
0.0
  0
SPLINE
  5
10D
330
87
100
AcDbEntity
  8
P-SANR-FIXT
100
AcDbSpline
210
0.0
220
0.0
230
1.0
 70
     8
 71
     3
 72
    25
 73
    21
 74
     0
 42
0.000000001
 43
0.0000000001
 40
0.0
 40
0.0
 40
0.0
 40
0.0
 40
0.1111111111111111
 40
0.2222222222222222
 40
0.2777777777777778
 40
0.3333333333333333
 40
0.3611111111111111
 40
0.3888888888888888
 40
0.4444444444444445
 40
0.4791666666666666
 40
0.5138888888888889
 40
0.5486111111111111
 40
0.5833333333333333
 40
0.6180555555555555
 40
0.6527777777777777
 40
0.6875
 40
0.7222222222222223
 40
0.7916666666666668
 40
0.861111111111111
 40
1.0
 40
1.0
 40
1.0
 40
1.0
 10
786.1664074431878
 20
2021.999999999995
 30
0.0
 10
786.1492246701596
 20
2021.999999999995
 30
0.0
 10
785.7710803123177
 20
2021.82162291418
 30
0.0
 10
784.3586576751044
 20
2021.26300300807
 30
0.0
 10
782.8094055401932
 20
2020.761208182305
 30
0.0
 10
781.6850203687573
 20
2020.457523702635
 30
0.0
 10
780.7192468766519
 20
2020.25057908575
 30
0.0
 10
779.6834192941174
 20
2020.061752275616
 30
0.0
 10
778.5452512541674
 20
2019.915079577775
 30
0.0
 10
777.3094923743731
 20
2019.847732692271
 30
0.0
 10
776.2397848332175
 20
2019.842191707314
 30
0.0
 10
775.1948009621833
 20
2019.888642389822
 30
0.0
 10
774.1929801741093
 20
2019.988590111898
 30
0.0
 10
773.1904500956797
 20
2020.140392881923
 30
0.0
 10
772.2389149579545
 20
2020.3258785517
 30
0.0
 10
771.3713270784899
 20
2020.530675754076
 30
0.0
 10
770.266039147388
 20
2020.839583511051
 30
0.0
 10
769.0937840026322
 20
2021.228610799347
 30
0.0
 10
767.6275591969337
 20
2021.790136313736
 30
0.0
 10
767.1875871350048
 20
2021.999999999995
 30
0.0
 10
767.1664074431878
 20
2021.999999999995
 30
0.0
  0
LINE
  5
10E
330
87
100
AcDbEntity
  8
P-SANR-FIXT
100
AcDbLine
 10
795.6664074431877
 20
2026.499999999995
 30
0.0
 11
795.6664074431877
 21
2026.045234052418
 31
0.0
  0
LINE
  5
10F
330
87
100
AcDbEntity
  8
P-SANR-FIXT
100
AcDbLine
 10
795.6664074431877
 20
2026.045234052418
 30
0.0
 11
814.5117069048085
 21
2026.045234052418
 31
0.0
  0
LINE
  5
110
330
87
100
AcDbEntity
  8
P-SANR-FIXT
100
AcDbLine
 10
814.5117069048085
 20
1973.954765947572
 30
0.0
 11
795.6664074431877
 21
1973.954765947572
 31
0.0
  0
LINE
  5
111
330
87
100
AcDbEntity
  8
P-SANR-FIXT
100
AcDbLine
 10
795.6664074431877
 20
1973.954765947572
 30
0.0
 11
795.6664074431877
 21
1973.499999999995
 31
0.0
  0
LINE
  5
112
330
87
100
AcDbEntity
  8
P-SANR-FIXT
100
AcDbLine
 10
795.6664074431877
 20
2017.256036136794
 30
0.0
 11
795.6664074431877
 21
2008.789197915618
 31
0.0
  0
LINE
  5
113
330
87
100
AcDbEntity
  8
P-SANR-FIXT
100
AcDbLine
 10
795.6664074431877
 20
2008.789197915618
 30
0.0
 11
814.5117069048085
 21
2008.789197915618
 31
0.0
  0
LINE
  5
114
330
87
100
AcDbEntity
  8
P-SANR-FIXT
100
AcDbLine
 10
814.5117069048085
 20
2017.256036136794
 30
0.0
 11
795.6664074431877
 21
2017.256036136794
 31
0.0
  0
LINE
  5
115
330
87
100
AcDbEntity
  8
P-SANR-FIXT
100
AcDbLine
 10
795.6664074431877
 20
1991.210802084372
 30
0.0
 11
795.6664074431877
 21
1982.743963863195
 31
0.0
  0
LINE
  5
116
330
87
100
AcDbEntity
  8
P-SANR-FIXT
100
AcDbLine
 10
795.6664074431877
 20
1982.743963863195
 30
0.0
 11
814.5117069048085
 21
1982.743963863195
 31
0.0
  0
LINE
  5
117
330
87
100
AcDbEntity
  8
P-SANR-FIXT
100
AcDbLine
 10
814.5117069048085
 20
1991.210802084372
 30
0.0
 11
795.6664074431877
 21
1991.210802084372
 31
0.0
  0
LINE
  5
118
330
87
100
AcDbEntity
  8
P-SANR-FIXT
100
AcDbLine
 10
814.5117069048085
 20
2026.045234052418
 30
0.0
 11
814.5117069048085
 21
2026.499999999995
 31
0.0
  0
SPLINE
  5
119
330
87
100
AcDbEntity
  8
P-SANR-FIXT
100
AcDbSpline
210
0.0
220
0.0
230
1.0
 70
     8
 71
     3
 72
     9
 73
     5
 74
     0
 42
0.000000001
 43
0.0000000001
 40
-1.0
 40
-1.0
 40
-1.0
 40
-1.0
 40
-0.5
 40
0.0
 40
0.0
 40
0.0
 40
0.0
 10
814.5117069048085
 20
2026.045234052418
 30
0.0
 10
815.089028997157
 20
2024.600534494502
 30
0.0
 10
815.6663510895057
 20
2021.690968617317
 30
0.0
 10
815.089028997157
 20
2018.74106921742
 30
0.0
 10
814.5117069048085
 20
2017.256036136794
 30
0.0
  0
LINE
  5
11A
330
87
100
AcDbEntity
  8
P-SANR-FIXT
100
AcDbLine
 10
814.5117069048085
 20
2008.789197915618
 30
0.0
 11
814.5117069048085
 21
2017.256036136794
 31
0.0
  0
SPLINE
  5
11B
330
87
100
AcDbEntity
  8
P-SANR-FIXT
100
AcDbSpline
210
0.0
220
0.0
230
1.0
 70
     8
 71
     3
 72
     9
 73
     5
 74
     0
 42
0.000000001
 43
0.0000000001
 40
-1.0
 40
-1.0
 40
-1.0
 40
-1.0
 40
-0.5
 40
0.0
 40
0.0
 40
0.0
 40
0.0
 10
814.5117069048085
 20
2008.789197915618
 30
0.0
 10
815.089028997157
 20
2005.899798799788
 30
0.0
 10
815.6663510895057
 20
2000.080667045416
 30
0.0
 10
815.089028997157
 20
1994.180868245623
 30
0.0
 10
814.5117069048085
 20
1991.210802084372
 30
0.0
  0
LINE
  5
11C
330
87
100
AcDbEntity
  8
P-SANR-FIXT
100
AcDbLine
 10
814.5117069048085
 20
1982.743963863195
 30
0.0
 11
814.5117069048085
 21
1991.210802084372
 31
0.0
  0
SPLINE
  5
11D
330
87
100
AcDbEntity
  8
P-SANR-FIXT
100
AcDbSpline
210
0.0
220
0.0
230
1.0
 70
     8
 71
     3
 72
     9
 73
     5
 74
     0
 42
0.000000001
 43
0.0000000001
 40
-1.0
 40
-1.0
 40
-1.0
 40
-1.0
 40
-0.5
 40
0.0
 40
0.0
 40
0.0
 40
0.0
 10
814.5117069048085
 20
1982.743963863195
 30
0.0
 10
815.089028997157
 20
1981.29926430528
 30
0.0
 10
815.6663510895057
 20
1978.389698428094
 30
0.0
 10
815.089028997157
 20
1975.439799028198
 30
0.0
 10
814.5117069048085
 20
1973.954765947572
 30
0.0
  0
LINE
  5
11E
330
87
100
AcDbEntity
  8
P-SANR-FIXT
100
AcDbLine
 10
814.5117069048085
 20
1973.499999999995
 30
0.0
 11
814.5117069048085
 21
1973.954765947572
 31
0.0
  0
SPLINE
  5
11F
330
87
100
AcDbEntity
  8
P-SANR-FIXT
100
AcDbSpline
210
0.0
220
0.0
230
1.0
 70
     8
 71
     3
 72
     9
 73
     5
 74
     0
 42
0.000000001
 43
0.0000000001
 40
-1.0
 40
-1.0
 40
-1.0
 40
-1.0
 40
-0.5
 40
0.0
 40
0.0
 40
0.0
 40
0.0
 10
755.6664074431878
 20
2008.484037477674
 30
0.0
 10
755.6651992291905
 20
2008.302347213258
 30
0.0
 10
755.6988063953008
 20
2007.925052004123
 30
0.0
 10
755.8041709648895
 20
2007.520217219111
 30
0.0
 10
755.8746324476731
 20
2007.311075085516
 30
0.0
  0
SPLINE
  5
120
330
87
100
AcDbEntity
  8
P-SANR-FIXT
100
AcDbSpline
210
0.0
220
0.0
230
1.0
 70
     8
 71
     3
 72
     9
 73
     5
 74
     0
 42
0.000000001
 43
0.0000000001
 40
0.0
 40
0.0
 40
0.0
 40
0.0
 40
0.5
 40
1.0
 40
1.0
 40
1.0
 40
1.0
 10
754.4614735153264
 20
2008.724234017862
 30
0.0
 10
754.6627615360201
 20
2008.686159185836
 30
0.0
 10
755.064871878024
 20
2008.608064840053
 30
0.0
 10
755.4660508212612
 20
2008.5260414946
 30
0.0
 10
755.6664074431878
 20
2008.484037477674
 30
0.0
  0
SPLINE
  5
121
330
87
100
AcDbEntity
  8
P-SANR-FIXT
100
AcDbSpline
210
0.0
220
0.0
230
1.0
 70
     8
 71
     3
 72
    13
 73
     9
 74
     0
 42
0.000000001
 43
0.0000000001
 40
0.0
 40
0.0
 40
0.0
 40
0.0
 40
0.1666666666666666
 40
0.3333333333333333
 40
0.5
 40
0.6666666666666666
 40
0.8333333333333332
 40
1.0
 40
1.0
 40
1.0
 40
1.0
 10
759.865882172821
 20
2003.319825360367
 30
0.0
 10
761.9830139620087
 20
2002.388999992806
 30
0.0
 10
765.9655668506989
 20
2000.201667786036
 30
0.0
 10
771.1677639649223
 20
1995.930059445417
 30
0.0
 10
775.6478293096026
 20
1991.020550213623
 30
0.0
 10
779.3825421434775
 20
1986.112583545135
 30
0.0
 10
782.3319136291222
 20
1981.826122202741
 30
0.0
 10
783.5957278904316
 20
1979.820691980889
 30
0.0
 10
784.0669327135533
 20
1979.118774819635
 30
0.0
  0
LINE
  5
122
330
87
100
AcDbEntity
  8
P-SANR-FIXT
100
AcDbLine
 10
786.1664074431878
 20
2027.499999999995
 30
0.0
 11
767.1664074431878
 21
2027.499999999995
 31
0.0
  0
LINE
  5
123
330
87
100
AcDbEntity
  8
P-SANR-FIXT
100
AcDbLine
 10
726.1664074431878
 20
2027.499999999995
 30
0.0
 11
707.1664074431878
 21
2027.499999999995
 31
0.0
  0
LINE
  5
124
330
87
100
AcDbEntity
  8
P-SANR-FIXT
100
AcDbLine
 10
785.6664074431882
 20
2027.999999999995
 30
0.0
 11
781.1664074431985
 21
2027.999999999995
 31
0.0
  0
LINE
  5
125
330
87
100
AcDbEntity
  8
P-SANR-FIXT
100
AcDbLine
 10
781.1664074431986
 20
2027.999999999995
 30
0.0
 11
772.166407443199
 21
2027.999999999995
 31
0.0
  0
LINE
  5
126
330
87
100
AcDbEntity
  8
P-SANR-FIXT
100
AcDbLine
 10
772.1664074431989
 20
2027.999999999995
 30
0.0
 11
767.666407443187
 21
2027.999999999995
 31
0.0
  0
LINE
  5
127
330
87
100
AcDbEntity
  8
P-SANR-FIXT
100
AcDbLine
 10
725.6664074431884
 20
2027.999999999995
 30
0.0
 11
721.1664074431985
 21
2027.999999999995
 31
0.0
  0
LINE
  5
128
330
87
100
AcDbEntity
  8
P-SANR-FIXT
100
AcDbLine
 10
721.1664074431986
 20
2027.999999999995
 30
0.0
 11
712.166407443199
 21
2027.999999999995
 31
0.0
  0
LINE
  5
129
330
87
100
AcDbEntity
  8
P-SANR-FIXT
100
AcDbLine
 10
712.1664074431987
 20
2027.999999999994
 30
0.0
 11
707.666407443187
 21
2027.999999999994
 31
0.0
  0
LINE
  5
12A
330
87
100
AcDbEntity
  8
P-SANR-FIXT
100
AcDbLine
 10
790.1664074431878
 20
1977.999999999995
 30
0.0
 11
790.1664074431878
 21
2021.999999999995
 31
0.0
  0
LINE
  5
12B
330
87
100
AcDbEntity
  8
P-SANR-FIXT
100
AcDbLine
 10
794.5117069048085
 20
1975.499999999995
 30
0.0
 11
794.5117069048085
 21
2024.499999999995
 31
0.0
  0
SPLINE
  5
12C
330
87
100
AcDbEntity
  8
P-SANR-FIXT
100
AcDbSpline
210
0.0
220
0.0
230
1.0
 70
     8
 71
     3
 72
     9
 73
     5
 74
     0
 42
0.000000001
 43
0.0000000001
 40
-1.0
 40
-1.0
 40
-1.0
 40
-1.0
 40
-0.5
 40
0.0
 40
0.0
 40
0.0
 40
0.0
 10
795.6664074431877
 20
1973.954765947572
 30
0.0
 10
795.0890853508391
 20
1975.399465505488
 30
0.0
 10
794.5117632584905
 20
1978.309031382673
 30
0.0
 10
795.0890853508391
 20
1981.258930782569
 30
0.0
 10
795.6664074431877
 20
1982.743963863195
 30
0.0
  0
SPLINE
  5
12D
330
87
100
AcDbEntity
  8
P-SANR-FIXT
100
AcDbSpline
210
0.0
220
0.0
230
1.0
 70
     8
 71
     3
 72
     9
 73
     5
 74
     0
 42
0.000000001
 43
0.0000000001
 40
-1.0
 40
-1.0
 40
-1.0
 40
-1.0
 40
-0.5
 40
0.0
 40
0.0
 40
0.0
 40
0.0
 10
795.6664074431877
 20
1991.210802084372
 30
0.0
 10
795.0890853508391
 20
1994.100201200202
 30
0.0
 10
794.5117632584905
 20
1999.919332954574
 30
0.0
 10
795.0890853508391
 20
2005.819131754367
 30
0.0
 10
795.6664074431877
 20
2008.789197915618
 30
0.0
  0
SPLINE
  5
12E
330
87
100
AcDbEntity
  8
P-SANR-FIXT
100
AcDbSpline
210
0.0
220
0.0
230
1.0
 70
     8
 71
     3
 72
     9
 73
     5
 74
     0
 42
0.000000001
 43
0.0000000001
 40
-1.0
 40
-1.0
 40
-1.0
 40
-1.0
 40
-0.5
 40
0.0
 40
0.0
 40
0.0
 40
0.0
 10
795.6664074431877
 20
2017.256036136794
 30
0.0
 10
795.0890853508391
 20
2018.700735694709
 30
0.0
 10
794.5117632584905
 20
2021.610301571895
 30
0.0
 10
795.0890853508391
 20
2024.560200971792
 30
0.0
 10
795.6664074431877
 20
2026.045234052418
 30
0.0
  0
SPLINE
  5
12F
330
87
100
AcDbEntity
  8
P-SANR-FIXT
100
AcDbSpline
210
0.0
220
0.0
230
1.0
 70
     8
 71
     3
 72
     9
 73
     5
 74
     0
 42
0.000000001
 43
0.0000000001
 40
0.0
 40
0.0
 40
0.0
 40
0.0
 40
0.5
 40
1.0
 40
1.0
 40
1.0
 40
1.0
 10
784.0669327135533
 20
1979.118774819635
 30
0.0
 10
784.2983336975107
 20
1978.753869604959
 30
0.0
 10
784.6449305944262
 20
1978.193411476177
 30
0.0
 10
784.7591173493436
 20
1977.999999999995
 30
0.0
 10
784.7581081913026
 20
1977.999999999995
 30
0.0
  0
LWPOLYLINE
  5
130
330
87
100
AcDbEntity
  8
P-SANR-FIXT
100
AcDbPolyline
 90
        3
 70
   128
 43
0.0
 10
759.6660095724805
 20
2003.405751836803
 10
759.7659730709803
 20
2003.362955986713
 10
759.8658821728211
 20
2003.319825360367
  0
SPLINE
  5
131
330
87
100
AcDbEntity
  8
P-SANR-FIXT
100
AcDbSpline
210
0.0
220
0.0
230
1.0
 70
     8
 71
     3
 72
    23
 73
    19
 74
     0
 42
0.000000001
 43
0.0000000001
 40
-1.0
 40
-1.0
 40
-1.0
 40
-1.0
 40
-0.8
 40
-0.7
 40
-0.65
 40
-0.6
 40
-0.575
 40
-0.55
 40
-0.5
 40
-0.45
 40
-0.4
 40
-0.35
 40
-0.3
 40
-0.25
 40
-0.2
 40
-0.15
 40
-0.1
 40
0.0
 40
0.0
 40
0.0
 40
0.0
 10
755.8746324476731
 20
2007.311075085516
 30
0.0
 10
755.9595809557496
 20
2007.056724272109
 30
0.0
 10
756.1319317309482
 20
2006.651158933979
 30
0.0
 10
756.4013166957926
 20
2006.152013091245
 30
0.0
 10
756.5778531639847
 20
2005.862651926509
 30
0.0
 10
756.7005881998136
 20
2005.68216851464
 30
0.0
 10
756.805592088233
 20
2005.5378094441
 30
0.0
 10
756.9136912167474
 20
2005.392612916102
 30
0.0
 10
757.0565327617669
 20
2005.211155036594
 30
0.0
 10
757.2427288931895
 20
2004.99590335722
 30
0.0
 10
757.4474903846734
 20
2004.787976739682
 30
0.0
 10
757.6703162600629
 20
2004.584641819695
 30
0.0
 10
757.9085065473222
 20
2004.384385291876
 30
0.0
 10
758.1631514685547
 20
2004.192723535892
 30
0.0
 10
758.4341888157023
 20
2004.014208112303
 30
0.0
 10
758.7209930075394
 20
2003.849042714246
 30
0.0
 10
759.1226713831034
 20
2003.640734973053
 30
0.0
 10
759.444364510205
 20
2003.497621472693
 30
0.0
 10
759.6660095724805
 20
2003.405751836803
 30
0.0
  0
SPLINE
  5
132
330
87
100
AcDbEntity
  8
P-SANR-FIXT
100
AcDbSpline
210
0.0
220
0.0
230
1.0
 70
     8
 71
     3
 72
    14
 73
    10
 74
     0
 42
0.000000001
 43
0.0000000001
 40
0.0
 40
0.0
 40
0.0
 40
0.0
 40
0.25
 40
0.3125
 40
0.375
 40
0.5
 40
0.625
 40
0.75
 40
1.0
 40
1.0
 40
1.0
 40
1.0
 10
751.7693000984544
 20
2007.416407434734
 30
0.0
 10
751.8750261734519
 20
2007.66272121302
 30
0.0
 10
752.04993152893
 20
2007.931662238942
 30
0.0
 10
752.3281628365116
 20
2008.209627867831
 30
0.0
 10
752.5334847082025
 20
2008.385666062269
 30
0.0
 10
752.8142530401884
 20
2008.567765950319
 30
0.0
 10
753.20392461546
 20
2008.708018835802
 30
0.0
 10
753.7586629798851
 20
2008.810738605894
 30
0.0
 10
754.1734547634002
 20
2008.785397668844
 30
0.0
 10
754.4614735153264
 20
2008.724234017862
 30
0.0
  0
SPLINE
  5
133
330
87
100
AcDbEntity
  8
P-SANR-FIXT
100
AcDbSpline
210
0.0
220
0.0
230
1.0
 70
     8
 71
     3
 72
     9
 73
     5
 74
     0
 42
0.000000001
 43
0.0000000001
 40
-1.0
 40
-1.0
 40
-1.0
 40
-1.0
 40
-0.5
 40
0.0
 40
0.0
 40
0.0
 40
0.0
 10
751.1525715689539
 20
2006.187437561621
 30
0.0
 10
751.2633504389819
 20
2006.391873064548
 30
0.0
 10
751.476770898294
 20
2006.801283378627
 30
0.0
 10
751.6743498020921
 20
2007.21133930318
 30
0.0
 10
751.7693000984544
 20
2007.416407434734
 30
0.0
  0
SPLINE
  5
134
330
87
100
AcDbEntity
  8
P-SANR-FIXT
100
AcDbSpline
210
0.0
220
0.0
230
1.0
 70
     8
 71
     3
 72
     9
 73
     5
 74
     0
 42
0.000000001
 43
0.0000000001
 40
-1.0
 40
-1.0
 40
-1.0
 40
-1.0
 40
-0.5
 40
0.0
 40
0.0
 40
0.0
 40
0.0
 10
744.7367711664602
 20
2005.99773706456
 30
0.0
 10
745.9493645282134
 20
2006.592843973962
 30
0.0
 10
748.1888611300902
 20
2007.261964459832
 30
0.0
 10
750.1853625674087
 20
2006.760513201136
 30
0.0
 10
751.1525715689539
 20
2006.187437561621
 30
0.0
  0
SPLINE
  5
135
330
87
100
AcDbEntity
  8
P-SANR-FIXT
100
AcDbSpline
210
0.0
220
0.0
230
1.0
 70
     8
 71
     3
 72
     9
 73
     5
 74
     0
 42
0.000000001
 43
0.0000000001
 40
-1.0
 40
-1.0
 40
-1.0
 40
-1.0
 40
-0.5
 40
0.0
 40
0.0
 40
0.0
 40
0.0
 10
742.2329134814669
 20
2004.582618334024
 30
0.0
 10
742.6497032677819
 20
2004.851924219281
 30
0.0
 10
743.4822636026732
 20
2005.358622291884
 30
0.0
 10
744.3173780193369
 20
2005.796900411413
 30
0.0
 10
744.7367711664602
 20
2005.99773706456
 30
0.0
  0
SPLINE
  5
136
330
87
100
AcDbEntity
  8
P-SANR-FIXT
100
AcDbSpline
210
0.0
220
0.0
230
1.0
 70
     8
 71
     3
 72
    36
 73
    32
 74
     0
 42
0.000000001
 43
0.0000000001
 40
-1.0
 40
-1.0
 40
-1.0
 40
-1.0
 40
-0.95
 40
-0.925
 40
-0.9
 40
-0.875
 40
-0.85
 40
-0.825
 40
-0.8
 40
-0.775
 40
-0.75
 40
-0.725
 40
-0.7
 40
-0.675
 40
-0.65
 40
-0.6
 40
-0.5
 40
-0.4
 40
-0.35
 40
-0.3
 40
-0.275
 40
-0.25
 40
-0.225
 40
-0.2
 40
-0.175
 40
-0.15
 40
-0.125
 40
-0.1
 40
-0.075
 40
-0.05
 40
0.0
 40
0.0
 40
0.0
 40
0.0
 10
738.6664074431878
 20
1999.53304275495
 30
0.0
 10
738.6695420637927
 20
1999.601128744046
 30
0.0
 10
738.6821359476997
 20
1999.706375400652
 30
0.0
 10
738.7146416570416
 20
1999.853380065848
 30
0.0
 10
738.7464039904251
 20
1999.966704536444
 30
0.0
 10
738.7871210022772
 20
2000.084491567048
 30
0.0
 10
738.8363804461715
 20
2000.206528952265
 30
0.0
 10
738.8919482997182
 20
2000.331089437722
 30
0.0
 10
738.9512735888091
 20
2000.456218344546
 30
0.0
 10
739.014959691508
 20
2000.582320971506
 30
0.0
 10
739.084383836727
 20
2000.710652907249
 30
0.0
 10
739.1577738898742
 20
2000.840048031709
 30
0.0
 10
739.2337518131139
 20
2000.969689102683
 30
0.0
 10
739.3125735876408
 20
2001.099724032675
 30
0.0
 10
739.4226879959658
 20
2001.274521427442
 30
0.0
 10
739.6238453723064
 20
2001.581612809479
 30
0.0
 10
739.9331830743432
 20
2002.023337707257
 30
0.0
 10
740.2657858248844
 20
2002.467091160643
 30
0.0
 10
740.5434805122
 20
2002.822306370239
 30
0.0
 10
740.7228542393332
 20
2003.044142493407
 30
0.0
 10
740.8698773490712
 20
2003.221675503173
 30
0.0
 10
740.9815735980479
 20
2003.35503675576
 30
0.0
 10
741.0954445002372
 20
2003.488158353238
 30
0.0
 10
741.2120422142246
 20
2003.619777146721
 30
0.0
 10
741.33155807471
 20
2003.752564823228
 30
0.0
 10
741.4534998471664
 20
2003.88639471185
 30
0.0
 10
741.577808811734
 20
2004.017424670236
 30
0.0
 10
741.7042591004567
 20
2004.141963087222
 30
0.0
 10
741.8328427248463
 20
2004.25944889659
 30
0.0
 10
742.0073433355347
 20
2004.410264580367
 30
0.0
 10
742.1416872206638
 20
2004.515720699584
 30
0.0
 10
742.2329134814669
 20
2004.582618334024
 30
0.0
  0
SPLINE
  5
137
330
87
100
AcDbEntity
  8
P-SANR-FIXT
100
AcDbSpline
210
0.0
220
0.0
230
1.0
 70
     8
 71
     3
 72
    14
 73
    10
 74
     0
 42
0.000000001
 43
0.0000000001
 40
-1.0
 40
-1.0
 40
-1.0
 40
-1.0
 40
-0.7857142857142857
 40
-0.7321428571428572
 40
-0.6785714285714287
 40
-0.5714285714285714
 40
-0.2857142857142857
 40
-0.1428571428571428
 40
0.0
 40
0.0
 40
0.0
 40
0.0
 10
734.6664074431878
 20
1987.801717201498
 30
0.0
 10
735.1539067930229
 20
1988.052818140294
 30
0.0
 10
735.7272079002321
 20
1988.438546466014
 30
0.0
 10
736.3554411423161
 20
1989.010626916827
 30
0.0
 10
736.7497879666615
 20
1989.409121991428
 30
0.0
 10
737.5077037494426
 20
1990.310738457056
 30
0.0
 10
738.1846325788167
 20
1991.517028665574
 30
0.0
 10
738.5920130563605
 20
1992.823738827384
 30
0.0
 10
738.6610668824594
 20
1993.437522349714
 30
0.0
 10
738.6664074431878
 20
1993.736380347593
 30
0.0
  0
SPLINE
  5
138
330
87
100
AcDbEntity
  8
P-SANR-FIXT
100
AcDbSpline
210
0.0
220
0.0
230
1.0
 70
     8
 71
     3
 72
     9
 73
     5
 74
     0
 42
0.000000001
 43
0.0000000001
 40
-1.0
 40
-1.0
 40
-1.0
 40
-1.0
 40
-0.5
 40
0.0
 40
0.0
 40
0.0
 40
0.0
 10
725.1020566351288
 20
1983.145948808932
 30
0.0
 10
726.6443719742077
 20
1983.882002640874
 30
0.0
 10
729.7994992226033
 20
1985.375264430268
 30
0.0
 10
733.0378493813144
 20
1986.96860470085
 30
0.0
 10
734.6664074431878
 20
1987.801717201498
 30
0.0
  0
LINE
  5
139
330
87
100
AcDbEntity
  8
P-SANR-FIXT
100
AcDbLine
 10
757.1989603065623
 20
2020.999999999995
 30
0.0
 11
737.1338545798121
 21
2020.999999999995
 31
0.0
  0
LINE
  5
13A
330
87
100
AcDbEntity
  8
P-SANR-FIXT
100
AcDbLine
 10
673.6745243511334
 20
1939.891883092003
 30
0.0
 11
711.8582905352266
 21
1901.70811690791
 31
0.0
  0
LINE
  5
13B
330
87
100
AcDbEntity
  8
P-SANR-FIXT
100
AcDbLine
 10
776.2371216574175
 20
2029.999999999993
 30
0.0
 11
776.1833670430662
 21
2029.999999999993
 31
0.0
  0
LINE
  5
13C
330
87
100
AcDbEntity
  8
P-SANR-FIXT
100
AcDbLine
 10
784.6664074432072
 20
2029.999999999993
 30
0.0
 11
785.6664074431878
 21
2029.999999999993
 31
0.0
  0
LINE
  5
13D
330
87
100
AcDbEntity
  8
P-SANR-FIXT
100
AcDbLine
 10
777.0956932289582
 20
2029.999999999993
 30
0.0
 11
784.2371216574361
 21
2029.999999999993
 31
0.0
  0
LINE
  5
13E
330
87
100
AcDbEntity
  8
P-SANR-FIXT
100
AcDbLine
 10
769.0956932289374
 20
2029.999999999993
 30
0.0
 11
776.2371216574174
 21
2029.999999999993
 31
0.0
  0
LINE
  5
13F
330
87
100
AcDbEntity
  8
P-SANR-FIXT
100
AcDbLine
 10
767.6664074431867
 20
2029.999999999993
 30
0.0
 11
768.6664074431684
 21
2029.999999999993
 31
0.0
  0
LINE
  5
140
330
87
100
AcDbEntity
  8
P-SANR-FIXT
100
AcDbLine
 10
784.2371216574353
 20
2033.500000000002
 30
0.0
 11
784.6664074432072
 21
2033.500000000002
 31
0.0
  0
LINE
  5
141
330
87
100
AcDbEntity
  8
P-SANR-FIXT
100
AcDbLine
 10
768.6664074431684
 20
2033.500000000002
 30
0.0
 11
769.0956932289389
 21
2033.500000000002
 31
0.0
  0
LINE
  5
142
330
87
100
AcDbEntity
  8
P-SANR-FIXT
100
AcDbLine
 10
769.0956932289389
 20
2033.500000000002
 30
0.0
 11
776.2371216574162
 21
2033.500000000002
 31
0.0
  0
LINE
  5
143
330
87
100
AcDbEntity
  8
P-SANR-FIXT
100
AcDbLine
 10
776.2371216574162
 20
2033.500000000002
 30
0.0
 11
777.0956932289593
 21
2033.500000000002
 31
0.0
  0
LINE
  5
144
330
87
100
AcDbEntity
  8
P-SANR-FIXT
100
AcDbLine
 10
777.0956932289593
 20
2033.500000000002
 30
0.0
 11
784.2371216574353
 21
2033.500000000002
 31
0.0
  0
LINE
  5
145
330
87
100
AcDbEntity
  8
P-SANR-FIXT
100
AcDbLine
 10
784.2371216574353
 20
2033.500000000002
 30
0.0
 11
784.2371216574353
 21
2029.999999999994
 31
0.0
  0
LINE
  5
146
330
87
100
AcDbEntity
  8
P-SANR-FIXT
100
AcDbLine
 10
784.6664074432072
 20
2029.999999999994
 30
0.0
 11
784.6664074432072
 21
2033.500000000002
 31
0.0
  0
LINE
  5
147
330
87
100
AcDbEntity
  8
P-SANR-FIXT
100
AcDbLine
 10
768.6664074431684
 20
2029.999999999994
 30
0.0
 11
768.6664074431684
 21
2033.500000000002
 31
0.0
  0
LINE
  5
148
330
87
100
AcDbEntity
  8
P-SANR-FIXT
100
AcDbLine
 10
769.0956932289389
 20
2029.999999999994
 30
0.0
 11
769.0956932289389
 21
2033.500000000002
 31
0.0
  0
LINE
  5
149
330
87
100
AcDbEntity
  8
P-SANR-FIXT
100
AcDbLine
 10
776.2371216574162
 20
2029.999999999994
 30
0.0
 11
776.2371216574162
 21
2033.500000000002
 31
0.0
  0
LINE
  5
14A
330
87
100
AcDbEntity
  8
P-SANR-FIXT
100
AcDbLine
 10
777.0956932289593
 20
2029.999999999994
 30
0.0
 11
777.0956932289593
 21
2033.500000000002
 31
0.0
  0
LINE
  5
14B
330
87
100
AcDbEntity
  8
P-SANR-FIXT
100
AcDbLine
 10
724.6664074432069
 20
2029.999999999993
 30
0.0
 11
725.6664074431879
 21
2029.999999999993
 31
0.0
  0
LINE
  5
14C
330
87
100
AcDbEntity
  8
P-SANR-FIXT
100
AcDbLine
 10
717.0956932289576
 20
2029.999999999993
 30
0.0
 11
724.2371216574365
 21
2029.999999999993
 31
0.0
  0
LINE
  5
14D
330
87
100
AcDbEntity
  8
P-SANR-FIXT
100
AcDbLine
 10
709.0956932289375
 20
2029.999999999993
 30
0.0
 11
716.2371216574173
 21
2029.999999999993
 31
0.0
  0
LINE
  5
14E
330
87
100
AcDbEntity
  8
P-SANR-FIXT
100
AcDbLine
 10
707.6664074431866
 20
2029.999999999993
 30
0.0
 11
708.6664074431681
 21
2029.999999999993
 31
0.0
  0
LINE
  5
14F
330
87
100
AcDbEntity
  8
P-SANR-FIXT
100
AcDbLine
 10
724.2371216574349
 20
2033.500000000002
 30
0.0
 11
724.6664074432069
 21
2033.500000000002
 31
0.0
  0
LINE
  5
150
330
87
100
AcDbEntity
  8
P-SANR-FIXT
100
AcDbLine
 10
708.6664074431682
 20
2033.500000000002
 30
0.0
 11
709.0956932289384
 21
2033.500000000002
 31
0.0
  0
LINE
  5
151
330
87
100
AcDbEntity
  8
P-SANR-FIXT
100
AcDbLine
 10
709.0956932289384
 20
2033.500000000002
 30
0.0
 11
716.237121657416
 21
2033.500000000002
 31
0.0
  0
LINE
  5
152
330
87
100
AcDbEntity
  8
P-SANR-FIXT
100
AcDbLine
 10
716.237121657416
 20
2033.500000000002
 30
0.0
 11
717.0956932289591
 21
2033.500000000002
 31
0.0
  0
LINE
  5
153
330
87
100
AcDbEntity
  8
P-SANR-FIXT
100
AcDbLine
 10
717.0956932289591
 20
2033.500000000002
 30
0.0
 11
724.2371216574349
 21
2033.500000000002
 31
0.0
  0
LINE
  5
154
330
87
100
AcDbEntity
  8
P-SANR-FIXT
100
AcDbLine
 10
724.2371216574349
 20
2033.500000000002
 30
0.0
 11
724.2371216574349
 21
2029.999999999994
 31
0.0
  0
LINE
  5
155
330
87
100
AcDbEntity
  8
P-SANR-FIXT
100
AcDbLine
 10
724.6664074432069
 20
2029.999999999994
 30
0.0
 11
724.6664074432069
 21
2033.500000000002
 31
0.0
  0
LINE
  5
156
330
87
100
AcDbEntity
  8
P-SANR-FIXT
100
AcDbLine
 10
708.6664074431682
 20
2029.999999999994
 30
0.0
 11
708.6664074431682
 21
2033.500000000002
 31
0.0
  0
LINE
  5
157
330
87
100
AcDbEntity
  8
P-SANR-FIXT
100
AcDbLine
 10
709.0956932289384
 20
2029.999999999994
 30
0.0
 11
709.0956932289384
 21
2033.500000000002
 31
0.0
  0
LINE
  5
158
330
87
100
AcDbEntity
  8
P-SANR-FIXT
100
AcDbLine
 10
716.237121657416
 20
2029.999999999994
 30
0.0
 11
716.237121657416
 21
2033.500000000002
 31
0.0
  0
LINE
  5
159
330
87
100
AcDbEntity
  8
P-SANR-FIXT
100
AcDbLine
 10
717.0956932289591
 20
2029.999999999994
 30
0.0
 11
717.0956932289591
 21
2033.500000000002
 31
0.0
  0
LINE
  5
15A
330
87
100
AcDbEntity
  8
P-SANR-FIXT
100
AcDbLine
 10
684.9882328500755
 20
1913.021825406876
 30
0.0
 11
675.9726213899512
 21
1922.037436867009
 31
0.0
  0
LINE
  5
15B
330
87
100
AcDbEntity
  8
P-SANR-FIXT
100
AcDbLine
 10
694.0038443101996
 20
1904.006213946743
 30
0.0
 11
684.9882328500755
 21
1913.021825406876
 31
0.0
  0
LINE
  5
15C
330
87
100
AcDbEntity
  8
P-SANR-FIXT
100
AcDbLine
 10
684.9882328500755
 20
1913.021825406876
 30
0.0
 11
690.2915337090421
 21
1918.325126265838
 31
0.0
  0
LINE
  5
15D
330
87
100
AcDbEntity
  8
P-SANR-FIXT
100
AcDbLine
 10
681.2759222489179
 20
1927.340737725971
 30
0.0
 11
675.9726213899512
 21
1922.037436867009
 31
0.0
  0
LINE
  5
15E
330
87
100
AcDbEntity
  8
P-SANR-FIXT
100
AcDbLine
 10
699.3071451691661
 20
1909.309514805705
 30
0.0
 11
694.0038443101996
 21
1904.006213946743
 31
0.0
  0
LINE
  5
15F
330
87
100
AcDbEntity
  8
P-SANR-FIXT
100
AcDbLine
 10
681.2759222489196
 20
1927.34073772596
 30
0.0
 11
679.8812023022218
 21
1928.735457672658
 31
0.0
  0
LINE
  5
160
330
87
100
AcDbEntity
  8
P-SANR-FIXT
100
AcDbLine
 10
690.2915337090473
 20
1918.325126265843
 30
0.0
 11
681.2759222489193
 21
1927.340737725971
 31
0.0
  0
LINE
  5
161
330
87
100
AcDbEntity
  8
P-SANR-FIXT
100
AcDbLine
 10
699.3071451691776
 20
1909.309514805701
 30
0.0
 11
690.2915337090414
 21
1918.325126265837
 31
0.0
  0
LINE
  5
162
330
87
100
AcDbEntity
  8
P-SANR-FIXT
100
AcDbLine
 10
700.7018651158671
 20
1907.914794859
 30
0.0
 11
699.3071451691657
 21
1909.309514805701
 31
0.0
  0
ENDBLK
  5
164
330
87
100
AcDbEntity
  8
0
100
AcDbBlockEnd
  0
BLOCK
  5
2C1
330
166
100
AcDbEntity
  8
0
100
AcDbBlockBegin
  2
Automatic flow rate regulator valve_Caleffi_121 DN15 - 1_2__-V1-Est - Idraulica
 70
     0
 10
0.0
 20
0.0
 30
0.0
  3
Automatic flow rate regulator valve_Caleffi_121 DN15 - 1_2__-V1-Est - Idraulica
  1

  0
LWPOLYLINE
  5
167
330
166
100
AcDbEntity
  8
P-SANR-FIXT
100
AcDbPolyline
 90
       14
 70
   128
 43
0.0
 10
736.8697695765523
 20
1776.995878730053
 10
737.7533270406677
 20
1777.020871564053
 10
738.6349331900186
 20
1777.09576442359
 10
739.5126601747713
 20
1777.220302962348
 10
740.384625567594
 20
1777.394071628538
 10
741.2490114926263
 20
1777.616505384861
 10
742.1040799413905
 20
1777.886904610582
 10
742.9481837172387
 20
1778.204451954019
 10
743.7797728935798
 20
1778.568229875588
 10
744.5973970669883
 20
1778.977237739242
 10
745.3997039876792
 20
1779.430407533574
 10
746.1854353346254
 20
1779.92661758309
 10
746.9534204719046
 20
1780.4647038972
 10
747.3399034532357
 20
1780.763286727446
  0
LWPOLYLINE
  5
168
330
166
100
AcDbEntity
  8
P-SANR-FIXT
100
AcDbPolyline
 90
       15
 70
   128
 43
0.0
 10
747.3421585871368
 20
1831.728471248148
 10
747.1575214308871
 20
1831.874797536809
 10
746.3945161726218
 20
1832.42398260573
 10
745.6134628184429
 20
1832.93161162234
 10
744.8155095821315
 20
1833.396510800017
 10
744.001890438145
 20
1833.817546026545
 10
743.1739317684757
 20
1834.193633549624
 10
742.3330572152338
 20
1834.52375307375
 10
741.4807899013293
 20
1834.806962989673
 10
740.6187512224134
 20
1835.042417175431
 10
739.7486555658939
 20
1835.229382522237
 10
738.8723005838897
 20
1835.36725609494
 10
737.9915530209647
 20
1835.455580685979
 10
737.108330534076
 20
1835.494057507616
 10
736.8697695765522
 20
1835.495878730053
  0
LINE
  5
169
330
166
100
AcDbEntity
  8
P-SANR-FIXT
100
AcDbLine
 10
700.2818403364442
 20
1776.995878730053
 30
0.0
 11
736.8697695765521
 21
1776.995878730053
 31
0.0
  0
LINE
  5
16A
330
166
100
AcDbEntity
  8
P-SANR-FIXT
100
AcDbLine
 10
736.8697695765521
 20
1835.495878730053
 30
0.0
 11
700.2818403364442
 21
1835.495878730053
 31
0.0
  0
LWPOLYLINE
  5
16B
330
166
100
AcDbEntity
  8
P-SANR-FIXT
100
AcDbPolyline
 90
       16
 70
   128
 43
0.0
 10
688.6292122934906
 20
1781.745878730053
 10
689.2502014256004
 20
1781.206495823719
 10
689.9940884821091
 20
1780.616959923298
 10
690.7570937403745
 20
1780.067774854376
 10
691.5381470945532
 20
1779.560145837766
 10
692.3361003308647
 20
1779.095246660088
 10
693.1497194748511
 20
1778.67421143356
 10
693.9776781445206
 20
1778.298123910482
 10
694.8185526977622
 20
1777.968004386356
 10
695.6708200116668
 20
1777.684794470433
 10
696.5328586905827
 20
1777.449340284675
 10
697.402954347102
 20
1777.262374937869
 10
698.2793093291065
 20
1777.124501365166
 10
699.1600568920314
 20
1777.036176774127
 10
700.0432793789201
 20
1776.997699952489
 10
700.2818403364444
 20
1776.995878730053
  0
LWPOLYLINE
  5
16C
330
166
100
AcDbEntity
  8
P-SANR-FIXT
100
AcDbPolyline
 90
       16
 70
   128
 43
0.0
 10
700.2818403364444
 20
1835.495878730053
 10
699.3982828723289
 20
1835.470885896053
 10
698.5166767229782
 20
1835.395993036516
 10
697.6389497382253
 20
1835.271454497758
 10
696.7669843454026
 20
1835.097685831568
 10
695.9025984203703
 20
1834.875252075246
 10
695.0475299716061
 20
1834.604852849524
 10
694.203426195758
 20
1834.287305506087
 10
693.3718370194168
 20
1833.923527584518
 10
692.5542128460083
 20
1833.514519720864
 10
691.7519059253173
 20
1833.061349926532
 10
690.9661745783713
 20
1832.565139877017
 10
690.1981894410921
 20
1832.027053562907
 10
689.4490409177567
 20
1831.448288398133
 10
688.7197471320746
 20
1830.830068675895
 10
688.6288805296405
 20
1830.745878730053
  0
LINE
  5
16D
330
166
100
AcDbEntity
  8
P-SANR-FIXT
100
AcDbLine
 10
667.6664074431892
 20
1781.745878730053
 30
0.0
 11
667.9551692123229
 21
1781.24572867463
 31
0.0
  0
LINE
  5
16E
330
166
100
AcDbEntity
  8
P-SANR-FIXT
100
AcDbLine
 10
667.9551692123229
 20
1831.246028785476
 30
0.0
 11
667.6664074431892
 21
1830.745878730053
 31
0.0
  0
LINE
  5
16F
330
166
100
AcDbEntity
  8
P-SANR-FIXT
100
AcDbLine
 10
687.3776456740554
 20
1781.24572867463
 30
0.0
 11
687.6664074431892
 21
1781.745878730053
 31
0.0
  0
LINE
  5
170
330
166
100
AcDbEntity
  8
P-SANR-FIXT
100
AcDbLine
 10
687.6664074431892
 20
1830.745878730053
 30
0.0
 11
687.3776456740554
 21
1831.246028785476
 31
0.0
  0
LINE
  5
171
330
166
100
AcDbEntity
  8
P-SANR-FIXT
100
AcDbLine
 10
687.6664074431892
 20
1781.745878730053
 30
0.0
 11
689.4379803184425
 21
1781.745878730053
 31
0.0
  0
LINE
  5
172
330
166
100
AcDbEntity
  8
P-SANR-FIXT
100
AcDbLine
 10
689.4379803184425
 20
1830.745878730053
 30
0.0
 11
687.6664074431892
 21
1830.745878730053
 31
0.0
  0
LWPOLYLINE
  5
173
330
166
100
AcDbEntity
  8
P-SANR-FIXT
100
AcDbPolyline
 90
       21
 70
   128
 43
0.0
 10
690.8521938808157
 20
1782.33166516768
 10
690.7945092020502
 20
1782.276242928932
 10
690.7346543664482
 20
1782.223171793959
 10
690.6727251289787
 20
1782.172536665258
 10
690.6088205632102
 20
1782.124418548232
 10
690.5430429028163
 20
1782.078894421603
 10
690.4754973780215
 20
1782.036037114264
 10
690.4062920472564
 20
1781.995915188764
 10
690.3355376242873
 20
1781.958592831624
 10
690.2633473010977
 20
1781.924129750654
 10
690.1898365668045
 20
1781.892581079432
 10
690.1151230229015
 20
1781.863997289102
 10
690.0393261951209
 20
1781.838424107631
 10
689.9625673422177
 20
1781.815902446653
 10
689.8849692619826
 20
1781.796468336023
 10
689.8066560947902
 20
1781.780152866171
 10
689.7277531250023
 20
1781.766982138369
 10
689.6483865805389
 20
1781.756977222972
 10
689.5686834309404
 20
1781.750154125709
 10
689.4887711842436
 20
1781.746523762082
 10
689.4379803184425
 20
1781.745878730053
  0
LWPOLYLINE
  5
174
330
166
100
AcDbEntity
  8
P-SANR-FIXT
100
AcDbPolyline
 90
       21
 70
   128
 43
0.0
 10
689.4379803184425
 20
1830.745878730053
 10
689.5179589868158
 20
1830.744278943375
 10
689.5978097063809
 20
1830.739482142658
 10
689.6774047330204
 20
1830.73149600176
 10
689.756616731671
 20
1830.720333296804
 10
689.8353189800326
 20
1830.706011885735
 10
689.9133855712968
 20
1830.688554679757
 10
689.9906916155707
 20
1830.667989606675
 10
690.0671134396747
 20
1830.644349566218
 10
690.1425287849926
 20
1830.617672377409
 10
690.2168170030599
 20
1830.588000718059
 10
690.2898592485747
 20
1830.555382056493
 10
690.3615386695254
 20
1830.519868575611
 10
690.4317405941302
 20
1830.481517089408
 10
690.5003527142844
 20
1830.44038895208
 10
690.5672652652325
 20
1830.396549959872
 10
690.6323712011674
 20
1830.350070245821
 10
690.6955663664795
 20
1830.301024167555
 10
690.7567496623856
 20
1830.249490188335
 10
690.8158232086637
 20
1830.195550751535
 10
690.8521938808157
 20
1830.160092292426
  0
LINE
  5
175
330
166
100
AcDbEntity
  8
P-SANR-FIXT
100
AcDbLine
 10
690.8521938808157
 20
1782.33166516768
 30
0.0
 11
692.766407443189
 21
1784.245878730053
 31
0.0
  0
LINE
  5
176
330
166
100
AcDbEntity
  8
P-SANR-FIXT
100
AcDbLine
 10
692.766407443189
 20
1828.245878730053
 30
0.0
 11
690.8521938808157
 21
1830.160092292426
 31
0.0
  0
LINE
  5
177
330
166
100
AcDbEntity
  8
P-SANR-FIXT
100
AcDbLine
 10
692.766407443189
 20
1784.245878730053
 30
0.0
 11
734.6664074431892
 21
1784.245878730053
 31
0.0
  0
LINE
  5
178
330
166
100
AcDbEntity
  8
P-SANR-FIXT
100
AcDbLine
 10
734.6664074431892
 20
1828.245878730053
 30
0.0
 11
692.766407443189
 21
1828.245878730053
 31
0.0
  0
LWPOLYLINE
  5
179
330
166
100
AcDbEntity
  8
P-SANR-FIXT
100
AcDbPolyline
 90
       41
 70
   128
 43
0.0
 10
738.6664074431892
 20
1788.245878730053
 10
738.6632078698331
 20
1788.085921393307
 10
738.6536142683998
 20
1787.926219954177
 10
738.6376419866047
 20
1787.767029900898
 10
738.6153165766918
 20
1787.608605903596
 10
738.5866737545541
 20
1787.451201406873
 10
738.5517593425974
 20
1787.295068224345
 10
738.5106291964323
 20
1787.140456135797
 10
738.463349115519
 20
1786.987612487589
 10
738.4099947379008
 20
1786.836781796953
 10
738.3506514192006
 20
1786.688205360819
 10
738.2854140960691
 20
1786.542120869789
 10
738.2143871343064
 20
1786.398762027888
 10
738.1376841618998
 20
1786.258358178679
 10
738.0554278872429
 20
1786.12113393837
 10
737.9677499028279
 20
1785.987308836473
 10
737.8747904747264
 20
1785.857096964604
 10
737.7766983181929
 20
1785.730706633979
 10
737.6736303597526
 20
1785.608340042168
 10
737.5657514861528
 20
1785.490192949611
 10
737.4532342805778
 20
1785.376454366455
 10
737.3362587465544
 20
1785.26730625017
 10
737.2150120199835
 20
1785.162923214457
 10
737.0896880697631
 20
1785.063472249908
 10
736.960487387479
 20
1784.969112456849
 10
736.8276166666617
 20
1784.879994790821
 10
736.6912884721203
 20
1784.79626182108
 10
736.551720899884
 20
1784.718047502513
 10
736.409137228296
 20
1784.645476961347
 10
736.2637655608144
 20
1784.578666294966
 10
736.1158384610959
 20
1784.517722386184
 10
735.9655925809443
 20
1784.462742732255
 10
735.813268281717
 20
1784.413815288897
 10
735.6591092497987
 20
1784.37101832958
 10
735.5033621067547
 20
1784.334420320312
 10
735.3462760147902
 20
1784.304079810099
 10
735.1881022781417
 20
1784.280045337286
 10
735.0290939410465
 20
1784.262355351903
 10
734.8695053829235
 20
1784.251038154151
 10
734.7095919114224
 20
1784.246111849133
 10
734.6664074431892
 20
1784.245878730053
  0
LWPOLYLINE
  5
17A
330
166
100
AcDbEntity
  8
P-SANR-FIXT
100
AcDbPolyline
 90
       10
 70
   128
 43
0.0
 10
738.6664074431892
 20
1789.370835949366
 10
738.6664074431892
 20
1789.133856204184
 10
738.6664074431892
 20
1788.924252044673
 10
738.6664074431892
 20
1788.742358792776
 10
738.6664074431892
 20
1788.588467438893
 10
738.6664074431892
 20
1788.462824176362
 10
738.6664074431892
 20
1788.365630007603
 10
738.6664074431892
 20
1788.297040422548
 10
738.6664074431892
 20
1788.257165149905
 10
738.6664074431892
 20
1788.245878730053
  0
LWPOLYLINE
  5
17B
330
166
100
AcDbEntity
  8
P-SANR-FIXT
100
AcDbPolyline
 90
       37
 70
   128
 43
0.0
 10
738.6664074431892
 20
1788.245878730053
 10
738.6664074431892
 20
1788.260276810156
 10
738.6664074431892
 20
1788.303448016606
 10
738.6664074431892
 20
1788.375323284684
 10
738.6664074431892
 20
1788.475787629292
 10
738.6664074431892
 20
1788.604680328911
 10
738.6664074431892
 20
1788.761795182717
 10
738.6664074431892
 20
1788.946880840459
 10
738.6664074431892
 20
1789.159641204569
 10
738.6664074431892
 20
1789.39973590385
 10
738.6664074431892
 20
1789.666780838001
 10
738.6664074431892
 20
1789.960348792094
 10
738.6664074431892
 20
1790.279970120026
 10
738.6664074431892
 20
1790.625133495856
 10
738.6664074431892
 20
1790.995286731812
 10
738.6664074431892
 20
1791.389837661679
 10
738.6664074431892
 20
1791.808155088136
 10
738.6664074431892
 20
1792.249569792536
 10
738.6664074431892
 20
1792.713375605517
 10
738.6664074431892
 20
1793.198830536717
 10
738.6664074431892
 20
1793.705157961804
 10
738.6664074431892
 20
1794.23154786491
 10
738.6664074431892
 20
1794.777158134479
 10
738.6664074431892
 20
1795.341115910471
 10
738.6664074431892
 20
1795.922518980749
 10
738.6664074431892
 20
1796.520437224426
 10
738.6664074431892
 20
1797.133914099863
 10
738.6664074431892
 20
1797.761968174926
 10
738.6664074431892
 20
1798.403594697072
 10
738.6664074431892
 20
1799.05776720074
 10
738.6664074431892
 20
1799.723439149473
 10
738.6664074431892
 20
1800.399545610155
 10
738.6664074431892
 20
1801.085004956678
 10
738.6664074431892
 20
1801.77872060031
 10
738.6664074431892
 20
1802.479582744007
 10
738.6664074431892
 20
1803.186470157848
 10
738.6664074431892
 20
1803.745878730052
  0
LWPOLYLINE
  5
17C
330
166
100
AcDbEntity
  8
P-SANR-FIXT
100
AcDbPolyline
 90
       41
 70
   128
 43
0.0
 10
734.6664074431892
 20
1828.245878730053
 10
734.8263647799357
 20
1828.242679156697
 10
734.9860662190659
 20
1828.233085555263
 10
735.1452562723449
 20
1828.217113273468
 10
735.3036802696461
 20
1828.194787863555
 10
735.4610847663693
 20
1828.166145041418
 10
735.6172179488976
 20
1828.131230629461
 10
735.7718300374457
 20
1828.090100483296
 10
735.9246736856536
 20
1828.042820402383
 10
736.0755043762895
 20
1827.989466024764
 10
736.2240808124237
 20
1827.930122706064
 10
736.3701653034532
 20
1827.864885382933
 10
736.513524145355
 20
1827.79385842117
 10
736.653927994564
 20
1827.717155448763
 10
736.7911522348727
 20
1827.634899174106
 10
736.9249773367694
 20
1827.547221189691
 10
737.0551892086388
 20
1827.45426176159
 10
737.1815795392629
 20
1827.356169605056
 10
737.3039461310751
 20
1827.253101646616
 10
737.4220932236315
 20
1827.145222773016
 10
737.5358318067873
 20
1827.032705567441
 10
737.6449799230726
 20
1826.915730033418
 10
737.7493629587851
 20
1826.794483306847
 10
737.8488139233347
 20
1826.669159356626
 10
737.9431737163932
 20
1826.539958674343
 10
738.0322913824208
 20
1826.407087953525
 10
738.1160243521625
 20
1826.270759758984
 10
738.194238670729
 20
1826.131192186748
 10
738.2668092118953
 20
1825.988608515159
 10
738.3336198782763
 20
1825.843236847678
 10
738.3945637870581
 20
1825.695309747959
 10
738.4495434409871
 20
1825.545063867808
 10
738.498470884346
 20
1825.392739568581
 10
738.5412678436622
 20
1825.238580536662
 10
738.5778658529305
 20
1825.082833393619
 10
738.6082063631431
 20
1824.925747301653
 10
738.6322408359559
 20
1824.767573565005
 10
738.6499308213398
 20
1824.60856522791
 10
738.6612480190915
 20
1824.448976669787
 10
738.666174324109
 20
1824.289063198286
 10
738.6664074431892
 20
1824.245878730053
  0
LWPOLYLINE
  5
17D
330
166
100
AcDbEntity
  8
P-SANR-FIXT
100
AcDbPolyline
 90
       37
 70
   128
 43
0.0
 10
738.6664074431892
 20
1808.745878730053
 10
738.6664074431892
 20
1809.456710611584
 10
738.6664074431892
 20
1810.162405847046
 10
738.6664074431892
 20
1810.861835474603
 10
738.6664074431892
 20
1811.553880556052
 10
738.6664074431892
 20
1812.237433966894
 10
738.6664074431892
 20
1812.911402167487
 10
738.6664074431892
 20
1813.574706952482
 10
738.6664074431892
 20
1814.226287175722
 10
738.6664074431892
 20
1814.865100447845
 10
738.6664074431892
 20
1815.490124803888
 10
738.6664074431892
 20
1816.100360338214
 10
738.6664074431892
 20
1816.694830804145
 10
738.6664074431892
 20
1817.272585175748
 10
738.6664074431892
 20
1817.832699169276
 10
738.6664074431892
 20
1818.374276721825
 10
738.6664074431892
 20
1818.89645142484
 10
738.6664074431892
 20
1819.398387910188
 10
738.6664074431892
 20
1819.879283186568
 10
738.6664074431892
 20
1820.338367924122
 10
738.6664074431892
 20
1820.774907685201
 10
738.6664074431892
 20
1821.188204099315
 10
738.6664074431892
 20
1821.577595980363
 10
738.6664074431892
 20
1821.942460384403
 10
738.6664074431892
 20
1822.282213606221
 10
738.6664074431892
 20
1822.596312113139
 10
738.6664074431892
 20
1822.884253414551
 10
738.6664074431892
 20
1823.145576865799
 10
738.6664074431892
 20
1823.379864405106
 10
738.6664074431892
 20
1823.586741222388
 10
738.6664074431892
 20
1823.765876358869
 10
738.6664074431892
 20
1823.916983236545
 10
738.6664074431892
 20
1824.039820116644
 10
738.6664074431892
 20
1824.134190486364
 10
738.6664074431892
 20
1824.199943373242
 10
738.6664074431892
 20
1824.236973586688
 10
738.6664074431892
 20
1824.245878730053
  0
LWPOLYLINE
  5
17E
330
166
100
AcDbEntity
  8
P-SANR-FIXT
100
AcDbPolyline
 90
       10
 70
   128
 43
0.0
 10
738.6664074431892
 20
1824.245878730053
 10
738.6664074431892
 20
1824.23148064995
 10
738.6664074431892
 20
1824.1883094435
 10
738.6664074431892
 20
1824.116434175422
 10
738.6664074431892
 20
1824.015969830814
 10
738.6664074431892
 20
1823.887077131194
 10
738.6664074431892
 20
1823.729962277389
 10
738.6664074431892
 20
1823.544876619647
 10
738.6664074431892
 20
1823.332116255537
 10
738.6664074431892
 20
1823.12092151074
  0
LWPOLYLINE
  5
17F
330
166
100
AcDbEntity
  8
P-SANR-FIXT
100
AcDbPolyline
 90
        8
 70
   128
 43
0.0
 10
738.7588760909217
 20
1796.302914369341
 10
738.7358929187816
 20
1796.222574304836
 10
738.7161408764157
 20
1796.141379422061
 10
738.6996515628784
 20
1796.05945961551
 10
738.686451357554
 20
1795.976945939397
 10
738.6765613779549
 20
1795.893970398001
 10
738.6699974459387
 20
1795.810665734489
 10
738.6667700623965
 20
1795.727165218552
  0
LWPOLYLINE
  5
180
330
166
100
AcDbEntity
  8
P-SANR-FIXT
100
AcDbPolyline
 90
        8
 70
   128
 43
0.0
 10
738.6680785890454
 20
1816.719969662362
 10
738.6730893531375
 20
1816.636557166838
 10
738.6814317193113
 20
1816.553411769533
 10
738.6930923415611
 20
1816.470666485347
 10
738.7080525653784
 20
1816.388453689082
 10
738.7262884575968
 20
1816.306904903675
 10
738.7477708446786
 20
1816.226150589787
 10
738.7588760909217
 20
1816.188843090765
  0
LWPOLYLINE
  5
181
330
166
100
AcDbEntity
  8
P-SANR-FIXT
100
AcDbPolyline
 90
       25
 70
   128
 43
0.0
 10
755.6664074431891
 20
1803.745878730052
 10
755.6664074431891
 20
1803.035046848521
 10
755.6664074431891
 20
1802.329351613059
 10
755.6664074431891
 20
1801.629921985503
 10
755.6664074431891
 20
1800.937876904052
 10
755.6664074431891
 20
1800.254323493211
 10
755.6664074431891
 20
1799.580355292618
 10
755.6664074431891
 20
1798.917050507623
 10
755.6664074431891
 20
1798.265470284383
 10
755.6664074431891
 20
1797.62665701226
 10
755.6664074431891
 20
1797.001632656217
 10
755.6664074431891
 20
1796.39139712189
 10
755.6664074431891
 20
1795.79692665596
 10
755.6664074431891
 20
1795.219172284357
 10
755.6664074431891
 20
1794.659058290829
 10
755.6664074431891
 20
1794.117480738281
 10
755.6664074431891
 20
1793.595306035265
 10
755.6664074431891
 20
1793.093369549916
 10
755.6664074431891
 20
1792.612474273537
 10
755.6664074431891
 20
1792.153389535984
 10
755.6664074431891
 20
1791.716849774904
 10
755.6664074431891
 20
1791.303553360791
 10
755.6664074431891
 20
1790.914161479742
 10
755.6664074431891
 20
1790.549297075703
 10
755.6664074431891
 20
1790.370706035643
  0
LWPOLYLINE
  5
182
330
166
100
AcDbEntity
  8
P-SANR-FIXT
100
AcDbPolyline
 90
       25
 70
   128
 43
0.0
 10
755.6664074431891
 20
1822.121051424463
 10
755.6664074431891
 20
1821.769081969622
 10
755.6664074431891
 20
1821.392278701037
 10
755.6664074431891
 20
1820.99124442356
 10
755.6664074431891
 20
1820.566620706482
 10
755.6664074431891
 20
1820.119086857171
 10
755.6664074431891
 20
1819.649358834316
 10
755.6664074431891
 20
1819.158188102552
 10
755.6664074431891
 20
1818.64636043027
 10
755.6664074431891
 20
1818.114694632564
 10
755.6664074431891
 20
1817.564041261292
 10
755.6664074431891
 20
1816.995281244382
 10
755.6664074431891
 20
1816.409324476533
 10
755.6664074431891
 20
1815.807108363576
 10
755.6664074431891
 20
1815.189596322826
 10
755.6664074431891
 20
1814.557776241818
 10
755.6664074431891
 20
1813.912658897902
 10
755.6664074431891
 20
1813.25527634121
 10
755.6664074431891
 20
1812.586680243598
 10
755.6664074431891
 20
1811.907940216197
 10
755.6664074431891
 20
1811.22014209826
 10
755.6664074431891
 20
1810.524386220054
 10
755.6664074431891
 20
1809.821785642563
 10
755.6664074431891
 20
1809.113464376832
 10
755.6664074431891
 20
1808.745878730053
  0
LINE
  5
183
330
166
100
AcDbEntity
  8
P-SANR-FIXT
100
AcDbLine
 10
765.8911167231927
 20
1784.245878730053
 30
0.0
 11
790.1664074431892
 21
1784.245878730053
 31
0.0
  0
LINE
  5
184
330
166
100
AcDbEntity
  8
P-SANR-FIXT
100
AcDbLine
 10
790.1664074431892
 20
1828.245878730053
 30
0.0
 11
765.8911167231925
 21
1828.245878730053
 31
0.0
  0
LINE
  5
185
330
166
100
AcDbEntity
  8
P-SANR-FIXT
100
AcDbLine
 10
815.3776456740557
 20
1781.24572867463
 30
0.0
 11
815.6664074431892
 21
1781.745878730053
 31
0.0
  0
LINE
  5
186
330
166
100
AcDbEntity
  8
P-SANR-FIXT
100
AcDbLine
 10
815.6664074431892
 20
1830.745878730053
 30
0.0
 11
815.3776456740557
 21
1831.246028785476
 31
0.0
  0
LINE
  5
187
330
166
100
AcDbEntity
  8
P-SANR-FIXT
100
AcDbLine
 10
790.1664074431892
 20
1784.245878730053
 30
0.0
 11
792.0806210055625
 21
1782.33166516768
 31
0.0
  0
LINE
  5
188
330
166
100
AcDbEntity
  8
P-SANR-FIXT
100
AcDbLine
 10
792.0806210055625
 20
1830.160092292426
 30
0.0
 11
790.1664074431892
 21
1828.245878730053
 31
0.0
  0
LWPOLYLINE
  5
189
330
166
100
AcDbEntity
  8
P-SANR-FIXT
100
AcDbPolyline
 90
       21
 70
   128
 43
0.0
 10
793.4948345679355
 20
1781.745878730053
 10
793.4148558995622
 20
1781.747478516731
 10
793.3350051799973
 20
1781.752275317448
 10
793.2554101533577
 20
1781.760261458346
 10
793.1761981547071
 20
1781.771424163302
 10
793.0974959063453
 20
1781.785745574371
 10
793.0194293150813
 20
1781.803202780349
 10
792.9421232708073
 20
1781.823767853431
 10
792.8657014467033
 20
1781.847407893888
 10
792.7902861013852
 20
1781.874085082697
 10
792.7159978833183
 20
1781.903756742047
 10
792.6429556378035
 20
1781.936375403613
 10
792.5712762168525
 20
1781.971888884494
 10
792.5010742922481
 20
1782.010240370698
 10
792.4324621720939
 20
1782.051368508026
 10
792.3655496211454
 20
1782.095207500234
 10
792.3004436852107
 20
1782.141687214284
 10
792.2372485198986
 20
1782.190733292551
 10
792.1760652239927
 20
1782.242267271771
 10
792.1169916777143
 20
1782.296206708571
 10
792.0806210055625
 20
1782.33166516768
  0
LWPOLYLINE
  5
18A
330
166
100
AcDbEntity
  8
P-SANR-FIXT
100
AcDbPolyline
 90
       21
 70
   128
 43
0.0
 10
792.0806210055625
 20
1830.160092292426
 10
792.1383056843279
 20
1830.215514531175
 10
792.19816051993
 20
1830.268585666147
 10
792.2600897573995
 20
1830.319220794848
 10
792.3239943231676
 20
1830.367338911874
 10
792.3897719835618
 20
1830.412863038503
 10
792.4573175083566
 20
1830.455720345841
 10
792.5265228391219
 20
1830.495842271342
 10
792.5972772620907
 20
1830.533164628483
 10
792.6694675852806
 20
1830.567627709452
 10
792.7429783195736
 20
1830.599176380674
 10
792.8176918634765
 20
1830.627760171005
 10
792.8934886912571
 20
1830.653333352476
 10
792.9702475441604
 20
1830.675855013453
 10
793.0478456243954
 20
1830.695289124084
 10
793.1261587915878
 20
1830.711604593935
 10
793.2050617613757
 20
1830.724775321737
 10
793.2844283058392
 20
1830.734780237134
 10
793.3641314554378
 20
1830.741603334397
 10
793.4440437021343
 20
1830.745233698024
 10
793.4948345679355
 20
1830.745878730053
  0
LINE
  5
18B
330
166
100
AcDbEntity
  8
P-SANR-FIXT
100
AcDbLine
 10
793.4948345679355
 20
1781.745878730053
 30
0.0
 11
794.5117069048099
 21
1781.745878730053
 31
0.0
  0
LINE
  5
18C
330
166
100
AcDbEntity
  8
P-SANR-FIXT
100
AcDbLine
 10
794.5117069048099
 20
1830.745878730053
 30
0.0
 11
793.4948345679355
 21
1830.745878730053
 31
0.0
  0
LINE
  5
18D
330
166
100
AcDbEntity
  8
P-SANR-FIXT
100
AcDbLine
 10
794.5117069048099
 20
1781.745878730053
 30
0.0
 11
794.8004686739436
 21
1781.24572867463
 31
0.0
  0
LINE
  5
18E
330
166
100
AcDbEntity
  8
P-SANR-FIXT
100
AcDbLine
 10
794.8004686739436
 20
1831.246028785476
 30
0.0
 11
794.5117069048099
 21
1830.745878730053
 31
0.0
  0
LWPOLYLINE
  5
18F
330
166
100
AcDbEntity
  8
P-SANR-FIXT
100
AcDbPolyline
 90
       14
 70
   128
 43
0.0
 10
765.5760574881919
 20
1780.745878730053
 10
766.4100403469322
 20
1780.769467917864
 10
767.2416133883968
 20
1780.840106425114
 10
768.0684113369915
 20
1780.957412177821
 10
768.8881549895828
 20
1781.120764878417
 10
769.6986870967138
 20
1781.329329108429
 10
770.4980006291367
 20
1781.582083661227
 10
771.284258316641
 20
1781.87785464224
 10
772.055803233423
 20
1782.215349817844
 10
772.8111609959226
 20
1782.593191929802
 10
773.5490347418053
 20
1783.00994913919
 10
774.2682944282745
 20
1783.464161322384
 10
774.9679621265047
 20
1783.954361516063
 10
775.3453377766764
 20
1784.24589724202
  0
LWPOLYLINE
  5
190
330
166
100
AcDbEntity
  8
P-SANR-FIXT
100
AcDbPolyline
 90
       14
 70
   128
 43
0.0
 10
775.3491980114514
 20
1828.245860222907
 10
774.7656813442391
 20
1828.684207657468
 10
774.0601984209923
 20
1829.164047865792
 10
773.3353943919571
 20
1829.607471947744
 10
772.5922899254639
 20
1830.013013018352
 10
771.832062414791
 20
1830.379216774576
 10
771.0560596875354
 20
1830.70466439782
 10
770.2658092193893
 20
1830.988000159131
 10
769.4630211938304
 20
1831.227962859556
 10
768.6495839526917
 20
1831.423419659465
 10
767.8275508218935
 20
1831.573400314105
 10
766.9991179613789
 20
1831.677129437397
 10
766.1665937195547
 20
1831.734054258783
 10
765.5760574881918
 20
1831.745878730053
  0
LINE
  5
191
330
166
100
AcDbEntity
  8
P-SANR-FIXT
100
AcDbLine
 10
740.1072064436284
 20
1780.745878730053
 30
0.0
 11
765.5760574881918
 21
1780.745878730053
 31
0.0
  0
LINE
  5
192
330
166
100
AcDbEntity
  8
P-SANR-FIXT
100
AcDbLine
 10
765.5760574881918
 20
1831.745878730053
 30
0.0
 11
740.1072064436283
 21
1831.745878730053
 31
0.0
  0
LWPOLYLINE
  5
193
330
166
100
AcDbEntity
  8
P-SANR-FIXT
100
AcDbPolyline
 90
       11
 70
   128
 43
0.0
 10
691.3521938808083
 20
1833.245878730067
 10
690.5604906226913
 20
1833.223483632997
 10
689.7703228265514
 20
1833.156356998793
 10
688.983213326333
 20
1833.044673482611
 10
688.2006604550261
 20
1832.888719912598
 10
687.4241275889095
 20
1832.688889303448
 10
686.6550346026124
 20
1832.445673228596
 10
685.8947515156162
 20
1832.159653167179
 10
685.1445943889823
 20
1831.831491456069
 10
684.4058233331587
 20
1831.461922418486
 10
684.0233388747268
 20
1831.245878730053
  0
LWPOLYLINE
  5
194
330
166
100
AcDbEntity
  8
P-SANR-FIXT
100
AcDbPolyline
 90
       12
 70
   128
 43
0.0
 10
684.0209327884364
 20
1781.245878730053
 10
684.2085317636157
 20
1781.136579006213
 10
684.9440209665266
 20
1780.755968088605
 10
685.6912267059676
 20
1780.416555049175
 10
686.4489040697204
 20
1780.119092194227
 10
687.2157519841318
 20
1779.864262145093
 10
687.9904146812455
 20
1779.652669098743
 10
688.7714852112923
 20
1779.484829775075
 10
689.5575111857046
 20
1779.361164596442
 10
690.3470027488299
 20
1779.281989720378
 10
691.1384425582141
 20
1779.247510553412
 10
691.3521938808083
 20
1779.245878730039
  0
LINE
  5
195
330
166
100
AcDbEntity
  8
P-SANR-FIXT
100
AcDbLine
 10
691.3521938808083
 20
1779.245878730039
 30
0.0
 11
692.1522550204147
 21
1779.245878730039
 31
0.0
  0
LINE
  5
196
330
166
100
AcDbEntity
  8
P-SANR-FIXT
100
AcDbLine
 10
692.1254981986276
 20
1833.245878730067
 30
0.0
 11
691.3521938808084
 21
1833.245878730067
 31
0.0
  0
ELLIPSE
  5
197
330
166
100
AcDbEntity
  8
P-SANR-FIXT
100
AcDbEllipse
 10
740.107206443627
 20
1806.245878730052
 30
0.0
 11
0.0
 21
25.49999999999989
 31
0.0
210
0.0
220
0.0
230
0.9999999999999998
 40
0.7071067811865537
 41
2.611460587416469
 42
3.180099025170495
  0
ELLIPSE
  5
198
330
166
100
AcDbEntity
  8
P-SANR-FIXT
100
AcDbEllipse
 10
740.107206443627
 20
1806.245878730052
 30
0.0
 11
0.0
 21
25.49999999999992
 31
0.0
210
0.0
220
0.0
230
1.0
 40
0.7071067811865493
 41
6.244678935598886
 42
6.813317373352894
  0
LINE
  5
199
330
166
100
AcDbEntity
  8
P-SANR-FIXT
100
AcDbLine
 10
715.9828753913982
 20
1796.771297259342
 30
0.0
 11
715.9862950320514
 21
1796.784212497837
 31
0.0
  0
LINE
  5
19A
330
166
100
AcDbEntity
  8
P-SANR-FIXT
100
AcDbLine
 10
715.9862950320514
 20
1815.707544962267
 30
0.0
 11
715.9828753913982
 21
1815.720460200762
 31
0.0
  0
ELLIPSE
  5
19B
330
166
100
AcDbEntity
  8
P-SANR-FIXT
100
AcDbEllipse
 10
693.4735142243744
 20
1806.245878730052
 30
0.0
 11
0.0
 21
26.99999999999989
 31
0.0
210
0.0
220
0.0
230
1.0
 40
0.7071067811865511
 41
2.754807523351723
 42
3.064747568963293
  0
ELLIPSE
  5
19C
330
166
100
AcDbEntity
  8
P-SANR-FIXT
100
AcDbEllipse
 10
693.4735142243744
 20
1806.245878730052
 30
0.0
 11
0.0
 21
26.99999999999992
 31
0.0
210
0.0
220
0.0
230
0.9999999999999998
 40
0.7071067811865487
 41
0.0777286770246477
 42
0.3867851302380594
  0
LINE
  5
19D
330
166
100
AcDbEntity
  8
P-SANR-FIXT
100
AcDbLine
 10
815.6664074431878
 20
1806.245878730052
 30
0.0
 11
815.6664074431878
 21
1781.745878730052
 31
0.0
  0
LINE
  5
19E
330
166
100
AcDbEntity
  8
P-SANR-FIXT
100
AcDbLine
 10
815.6664074431878
 20
1830.745878730052
 30
0.0
 11
815.6664074431878
 21
1806.245878730053
 31
0.0
  0
LINE
  5
19F
330
166
100
AcDbEntity
  8
P-SANR-FIXT
100
AcDbLine
 10
667.6664074431878
 20
1781.745878730053
 30
0.0
 11
667.6664074431878
 21
1806.245878730052
 31
0.0
  0
SPLINE
  5
1A0
330
166
100
AcDbEntity
  8
P-SANR-FIXT
100
AcDbSpline
210
0.0
220
0.0
230
1.0
 70
    24
 71
     3
 72
     9
 73
     5
 74
     0
 42
0.000000001
 43
0.0000000001
 40
-0.503578956862817
 40
-0.503578956862817
 40
-0.503578956862817
 40
-0.503578956862817
 40
-0.5
 40
0.0
 40
0.0
 40
0.0
 40
0.0
 10
667.9551692123217
 20
1781.245878730052
 30
0.0
 10
667.9551396328035
 20
1781.245878730052
 30
0.0
 10
667.9530586321809
 20
1781.245878730052
 30
0.0
 10
668.2437858888158
 20
1781.24587872995
 30
0.0
 10
668.8211079815673
 20
1781.245878730052
 30
0.0
  0
SPLINE
  5
1A1
330
166
100
AcDbEntity
  8
P-SANR-FIXT
100
AcDbSpline
210
0.0
220
0.0
230
1.0
 70
     8
 71
     3
 72
     9
 73
     5
 74
     0
 42
0.000000001
 43
0.0000000001
 40
-1.0
 40
-1.0
 40
-1.0
 40
-1.0
 40
-0.5
 40
0.0
 40
0.0
 40
0.0
 40
0.0
 10
668.8211079815673
 20
1786.134210056233
 30
0.0
 10
668.2437858892186
 20
1788.706362802797
 30
0.0
 10
667.6664637968699
 20
1793.815738440635
 30
0.0
 10
668.2437858892186
 20
1798.855254367889
 30
0.0
 10
668.8211079815673
 20
1801.35754740387
 30
0.0
  0
LINE
  5
1A2
330
166
100
AcDbEntity
  8
P-SANR-FIXT
100
AcDbLine
 10
667.6664074431878
 20
1806.245878730052
 30
0.0
 11
667.6664074431878
 21
1830.745878730052
 31
0.0
  0
SPLINE
  5
1A3
330
166
100
AcDbEntity
  8
P-SANR-FIXT
100
AcDbSpline
210
0.0
220
0.0
230
1.0
 70
     8
 71
     3
 72
     9
 73
     5
 74
     0
 42
0.000000001
 43
0.0000000001
 40
-1.0
 40
-1.0
 40
-1.0
 40
-1.0
 40
-0.5
 40
0.0
 40
0.0
 40
0.0
 40
0.0
 10
668.8211079815673
 20
1811.134210056233
 30
0.0
 10
668.2437858892186
 20
1813.706362802797
 30
0.0
 10
667.6664637968699
 20
1818.815738440635
 30
0.0
 10
668.2437858892186
 20
1823.855254367889
 30
0.0
 10
668.8211079815673
 20
1826.357547403871
 30
0.0
  0
SPLINE
  5
1A4
330
166
100
AcDbEntity
  8
P-SANR-FIXT
100
AcDbSpline
210
0.0
220
0.0
230
1.0
 70
    24
 71
     3
 72
     8
 73
     4
 74
     0
 42
0.000000001
 43
0.0000000001
 40
-1.0
 40
-1.0
 40
-1.0
 40
-1.0
 40
-0.5
 40
-0.5
 40
-0.5
 40
-0.5
 10
668.8211079815673
 20
1831.245878730052
 30
0.0
 10
668.2437858892186
 20
1831.245878730052
 30
0.0
 10
667.9551248430442
 20
1831.245878730052
 30
0.0
 10
667.9551248430442
 20
1831.245878730052
 30
0.0
  0
LINE
  5
1A5
330
166
100
AcDbEntity
  8
P-SANR-FIXT
100
AcDbLine
 10
668.8211079815673
 20
1781.245878730052
 30
0.0
 11
668.8211079815673
 21
1786.134210056233
 31
0.0
  0
LINE
  5
1A6
330
166
100
AcDbEntity
  8
P-SANR-FIXT
100
AcDbLine
 10
668.8211079815673
 20
1781.245878730052
 30
0.0
 11
686.5117069048085
 21
1781.245878730052
 31
0.0
  0
LINE
  5
1A7
330
166
100
AcDbEntity
  8
P-SANR-FIXT
100
AcDbLine
 10
686.5117069048085
 20
1786.134210056233
 30
0.0
 11
668.8211079815673
 21
1786.134210056233
 31
0.0
  0
LINE
  5
1A8
330
166
100
AcDbEntity
  8
P-SANR-FIXT
100
AcDbLine
 10
668.8211079815669
 20
1801.35754740387
 30
0.0
 11
668.8211079815669
 21
1806.245878730052
 31
0.0
  0
LINE
  5
1A9
330
166
100
AcDbEntity
  8
P-SANR-FIXT
100
AcDbLine
 10
668.8211079815673
 20
1801.35754740387
 30
0.0
 11
686.5117069048085
 21
1801.35754740387
 31
0.0
  0
LINE
  5
1AA
330
166
100
AcDbEntity
  8
P-SANR-FIXT
100
AcDbLine
 10
686.5117069048085
 20
1811.134210056233
 30
0.0
 11
668.8211079815673
 21
1811.134210056233
 31
0.0
  0
LINE
  5
1AB
330
166
100
AcDbEntity
  8
P-SANR-FIXT
100
AcDbLine
 10
668.8211079815673
 20
1806.245878730052
 30
0.0
 11
668.8211079815673
 21
1811.134210056233
 31
0.0
  0
LINE
  5
1AC
330
166
100
AcDbEntity
  8
P-SANR-FIXT
100
AcDbLine
 10
668.8211079815673
 20
1826.357547403871
 30
0.0
 11
668.8211079815673
 21
1831.245878730052
 31
0.0
  0
LINE
  5
1AD
330
166
100
AcDbEntity
  8
P-SANR-FIXT
100
AcDbLine
 10
668.8211079815673
 20
1826.357547403871
 30
0.0
 11
686.5117069048085
 21
1826.357547403871
 31
0.0
  0
LINE
  5
1AE
330
166
100
AcDbEntity
  8
P-SANR-FIXT
100
AcDbLine
 10
686.5117069048085
 20
1831.245878730052
 30
0.0
 11
668.8211079815673
 21
1831.245878730052
 31
0.0
  0
LINE
  5
1AF
330
166
100
AcDbEntity
  8
P-SANR-FIXT
100
AcDbLine
 10
686.5117069048087
 20
1801.35754740387
 30
0.0
 11
686.5117069048087
 21
1806.245878730052
 31
0.0
  0
SPLINE
  5
1B0
330
166
100
AcDbEntity
  8
P-SANR-FIXT
100
AcDbSpline
210
0.0
220
0.0
230
1.0
 70
     8
 71
     3
 72
     9
 73
     5
 74
     0
 42
0.000000001
 43
0.0000000001
 40
-1.0
 40
-1.0
 40
-1.0
 40
-1.0
 40
-0.5
 40
0.0
 40
0.0
 40
0.0
 40
0.0
 10
686.5117069048085
 20
1801.35754740387
 30
0.0
 10
687.0890289971571
 20
1798.855254367889
 30
0.0
 10
687.6663510895057
 20
1793.815738440635
 30
0.0
 10
687.0890289971571
 20
1788.706362802797
 30
0.0
 10
686.5117069048085
 20
1786.134210056233
 30
0.0
  0
LINE
  5
1B1
330
166
100
AcDbEntity
  8
P-SANR-FIXT
100
AcDbLine
 10
686.5117069048085
 20
1781.245878730052
 30
0.0
 11
686.5117069048085
 21
1786.134210056233
 31
0.0
  0
SPLINE
  5
1B2
330
166
100
AcDbEntity
  8
P-SANR-FIXT
100
AcDbSpline
210
0.0
220
0.0
230
1.0
 70
    24
 71
     3
 72
     9
 73
     5
 74
     0
 42
0.000000001
 43
0.0000000001
 40
-1.0
 40
-1.0
 40
-1.0
 40
-1.0
 40
-0.5
 40
-0.4964210431371844
 40
-0.4964210431371844
 40
-0.4964210431371844
 40
-0.4964210431371844
 10
686.5117069048085
 20
1781.245878730052
 30
0.0
 10
687.0890289971571
 20
1781.245878730052
 30
0.0
 10
687.3797562541946
 20
1781.245878730052
 30
0.0
 10
687.3776752535722
 20
1781.245878730052
 30
0.0
 10
687.3776456740539
 20
1781.245878730052
 30
0.0
  0
SPLINE
  5
1B3
330
166
100
AcDbEntity
  8
P-SANR-FIXT
100
AcDbSpline
210
0.0
220
0.0
230
1.0
 70
    24
 71
     3
 72
     8
 73
     4
 74
     0
 42
0.000000001
 43
0.0000000001
 40
-0.5
 40
-0.5
 40
-0.5
 40
-0.5
 40
0.0
 40
0.0
 40
0.0
 40
0.0
 10
687.3776900433314
 20
1831.245878730052
 30
0.0
 10
687.3776900433314
 20
1831.245878730052
 30
0.0
 10
687.0890289971571
 20
1831.245878730052
 30
0.0
 10
686.5117069048085
 20
1831.245878730052
 30
0.0
  0
LINE
  5
1B4
330
166
100
AcDbEntity
  8
P-SANR-FIXT
100
AcDbLine
 10
686.5117069048085
 20
1826.357547403871
 30
0.0
 11
686.5117069048085
 21
1831.245878730052
 31
0.0
  0
SPLINE
  5
1B5
330
166
100
AcDbEntity
  8
P-SANR-FIXT
100
AcDbSpline
210
0.0
220
0.0
230
1.0
 70
     8
 71
     3
 72
     9
 73
     5
 74
     0
 42
0.000000001
 43
0.0000000001
 40
-1.0
 40
-1.0
 40
-1.0
 40
-1.0
 40
-0.5
 40
0.0
 40
0.0
 40
0.0
 40
0.0
 10
686.5117069048085
 20
1826.357547403871
 30
0.0
 10
687.0890289971571
 20
1823.855254367889
 30
0.0
 10
687.6663510895057
 20
1818.815738440635
 30
0.0
 10
687.0890289971571
 20
1813.706362802797
 30
0.0
 10
686.5117069048085
 20
1811.134210056233
 30
0.0
  0
LINE
  5
1B6
330
166
100
AcDbEntity
  8
P-SANR-FIXT
100
AcDbLine
 10
686.5117069048085
 20
1806.245878730052
 30
0.0
 11
686.5117069048085
 21
1811.134210056233
 31
0.0
  0
LINE
  5
1B7
330
166
100
AcDbEntity
  8
P-SANR-FIXT
100
AcDbLine
 10
687.6664074431878
 20
1781.745878730052
 30
0.0
 11
687.6664074431878
 21
1806.245878730052
 31
0.0
  0
LINE
  5
1B8
330
166
100
AcDbEntity
  8
P-SANR-FIXT
100
AcDbLine
 10
687.6664074431878
 20
1806.245878730052
 30
0.0
 11
687.6664074431878
 21
1830.745878730052
 31
0.0
  0
LINE
  5
1B9
330
166
100
AcDbEntity
  8
P-SANR-FIXT
100
AcDbLine
 10
692.7664074431877
 20
1784.245878730052
 30
0.0
 11
692.7664074431877
 21
1806.245878730052
 31
0.0
  0
SPLINE
  5
1BA
330
166
100
AcDbEntity
  8
P-SANR-FIXT
100
AcDbSpline
210
0.0
220
0.0
230
1.0
 70
     8
 71
     3
 72
     8
 73
     4
 74
     0
 42
0.000000001
 43
0.0000000001
 40
0.037037037037037
 40
0.037037037037037
 40
0.037037037037037
 40
0.037037037037037
 40
0.0404410374432439
 40
0.0404410374432439
 40
0.0404410374432439
 40
0.0404410374432439
 10
726.0913334225623
 20
1805.109156738862
 30
0.0
 10
726.0872416764685
 20
1805.075040321696
 30
0.0
 10
726.0829835768954
 20
1805.040987577459
 30
0.0
 10
726.0785586620839
 20
1805.006998115587
 30
0.0
  0
SPLINE
  5
1BB
330
166
100
AcDbEntity
  8
P-SANR-FIXT
100
AcDbSpline
210
0.0
220
0.0
230
1.0
 70
     8
 71
     3
 72
     8
 73
     4
 74
     0
 42
0.000000001
 43
0.0000000001
 40
0.0740740740740741
 40
0.0740740740740741
 40
0.0740740740740741
 40
0.0740740740740741
 40
0.0820830143731885
 40
0.0820830143731885
 40
0.0820830143731885
 40
0.0820830143731885
 10
725.8980977908776
 20
1804.017661910391
 30
0.0
 10
725.879824961452
 20
1803.940543932045
 30
0.0
 10
725.8606034404839
 20
1803.863754902728
 30
0.0
 10
725.8404272138538
 20
1803.787289735608
 30
0.0
  0
SPLINE
  5
1BC
330
166
100
AcDbEntity
  8
P-SANR-FIXT
100
AcDbSpline
210
0.0
220
0.0
230
1.0
 70
     8
 71
     3
 72
     8
 73
     4
 74
     0
 42
0.000000001
 43
0.0000000001
 40
0.1111111111111111
 40
0.1111111111111111
 40
0.1111111111111111
 40
0.1111111111111111
 40
0.1242685490445217
 40
0.1242685490445217
 40
0.1242685490445217
 40
0.1242685490445217
 10
725.5831318743354
 20
1802.968375805724
 30
0.0
 10
725.5384862460367
 20
1802.846502523775
 30
0.0
 10
725.4912050972347
 20
1802.725453564726
 30
0.0
 10
725.4413684264829
 20
1802.60535078805
 30
0.0
  0
SPLINE
  5
1BD
330
166
100
AcDbEntity
  8
P-SANR-FIXT
100
AcDbSpline
210
0.0
220
0.0
230
1.0
 70
     8
 71
     3
 72
     8
 73
     4
 74
     0
 42
0.000000001
 43
0.0000000001
 40
0.1481481481481481
 40
0.1481481481481481
 40
0.1481481481481481
 40
0.1481481481481481
 40
0.2222222222222222
 40
0.2222222222222222
 40
0.2222222222222222
 40
0.2222222222222222
 10
725.1452461150038
 20
1801.961501087705
 30
0.0
 10
724.8139350717629
 20
1801.306938742124
 30
0.0
 10
724.4062287371879
 20
1800.689375368051
 30
0.0
 10
723.9364018059481
 20
1800.130555192787
 30
0.0
  0
SPLINE
  5
1BE
330
166
100
AcDbEntity
  8
P-SANR-FIXT
100
AcDbSpline
210
0.0
220
0.0
230
1.0
 70
     8
 71
     3
 72
     8
 73
     4
 74
     0
 42
0.000000001
 43
0.0000000001
 40
0.2504167392048925
 40
0.2504167392048925
 40
0.2504167392048925
 40
0.2504167392048925
 40
0.2592592592592593
 40
0.2592592592592593
 40
0.2592592592592593
 40
0.2592592592592593
 10
723.3734039700678
 20
1799.518114088838
 30
0.0
 10
723.311826304998
 20
1799.456785045135
 30
0.0
 10
723.2494112689244
 20
1799.396306071213
 30
0.0
 10
723.1861738711176
 20
1799.33668123484
 30
0.0
  0
SPLINE
  5
1BF
330
166
100
AcDbEntity
  8
P-SANR-FIXT
100
AcDbSpline
210
0.0
220
0.0
230
1.0
 70
     8
 71
     3
 72
     8
 73
     4
 74
     0
 42
0.000000001
 43
0.0000000001
 40
0.2917725531931123
 40
0.2917725531931123
 40
0.2917725531931123
 40
0.2917725531931123
 40
0.2962962962962963
 40
0.2962962962962963
 40
0.2962962962962963
 40
0.2962962962962963
 10
722.456094270198
 20
1798.7139897392
 30
0.0
 10
722.4207805746935
 20
1798.686783216792
 30
0.0
 10
722.3852751268956
 20
1798.65982206595
 30
0.0
 10
722.3495828571783
 20
1798.633112620178
 30
0.0
  0
SPLINE
  5
1C0
330
166
100
AcDbEntity
  8
P-SANR-FIXT
100
AcDbSpline
210
0.0
220
0.0
230
1.0
 70
     8
 71
     3
 72
     8
 73
     4
 74
     0
 42
0.000000001
 43
0.0000000001
 40
0.3333333333333333
 40
0.3333333333333333
 40
0.3333333333333333
 40
0.3333333333333333
 40
0.3341526418942318
 40
0.3341526418942318
 40
0.3341526418942318
 40
0.3341526418942318
 10
721.4380548828179
 20
1798.031173579417
 30
0.0
 10
721.4310963597259
 20
1798.027159508048
 30
0.0
 10
721.4241330326063
 20
1798.023155393993
 30
0.0
 10
721.4171648184593
 20
1798.01916115142
 30
0.0
  0
SPLINE
  5
1C1
330
166
100
AcDbEntity
  8
P-SANR-FIXT
100
AcDbSpline
210
0.0
220
0.0
230
1.0
 70
     8
 71
     3
 72
     8
 73
     4
 74
     0
 42
0.000000001
 43
0.0000000001
 40
0.3703703703703703
 40
0.3703703703703703
 40
0.3703703703703703
 40
0.3703703703703703
 40
0.3759341474900916
 40
0.3759341474900916
 40
0.3759341474900916
 40
0.3759341474900916
 10
720.4575861585448
 20
1797.540163961796
 30
0.0
 10
720.4064320320981
 20
1797.517975743363
 30
0.0
 10
720.3550042628701
 20
1797.496156908738
 30
0.0
 10
720.303349518119
 20
1797.474734135688
 30
0.0
  0
SPLINE
  5
1C2
330
166
100
AcDbEntity
  8
P-SANR-FIXT
100
AcDbSpline
210
0.0
220
0.0
230
1.0
 70
     8
 71
     3
 72
     8
 73
     4
 74
     0
 42
0.000000001
 43
0.0000000001
 40
0.4074074074074074
 40
0.4074074074074074
 40
0.4074074074074074
 40
0.4074074074074074
 40
0.4172423803312951
 40
0.4172423803312951
 40
0.4172423803312951
 40
0.4172423803312951
 10
719.4118094259522
 20
1797.153305452955
 30
0.0
 10
719.317754223141
 20
1797.1244815364
 30
0.0
 10
719.223365008975
 20
1797.097162182618
 30
0.0
 10
719.1286607418223
 20
1797.071386114162
 30
0.0
  0
SPLINE
  5
1C3
330
166
100
AcDbEntity
  8
P-SANR-FIXT
100
AcDbSpline
210
0.0
220
0.0
230
1.0
 70
     8
 71
     3
 72
    11
 73
     7
 74
     0
 42
0.000000001
 43
0.0000000001
 40
0.4444444444444445
 40
0.4444444444444445
 40
0.4444444444444445
 40
0.4444444444444445
 40
0.4791666666666666
 40
0.5138888888888889
 40
0.5486111111111111
 40
0.5555555555555556
 40
0.5555555555555556
 40
0.5555555555555556
 40
0.5555555555555556
 10
718.3360179602411
 20
1796.893745245047
 30
0.0
 10
717.9960250853699
 20
1796.833928666415
 30
0.0
 10
717.309492911542
 20
1796.755437508224
 30
0.0
 10
716.2397829531268
 20
1796.743911068056
 30
0.0
 10
715.4734679474438
 20
1796.815160717784
 30
0.0
 10
715.0658270284552
 20
1796.881863486151
 30
0.0
 10
714.9981161176383
 20
1796.893762988663
 30
0.0
  0
SPLINE
  5
1C4
330
166
100
AcDbEntity
  8
P-SANR-FIXT
100
AcDbSpline
210
0.0
220
0.0
230
1.0
 70
     8
 71
     3
 72
     9
 73
     5
 74
     0
 42
0.000000001
 43
0.0000000001
 40
0.5828314861499377
 40
0.5828314861499377
 40
0.5828314861499377
 40
0.5828314861499377
 40
0.5833333333333333
 40
0.5925925925925926
 40
0.5925925925925926
 40
0.5925925925925926
 40
0.5925925925925926
 10
714.2073465478943
 20
1797.070736075156
 30
0.0
 10
714.2025183615896
 20
1797.072050057963
 30
0.0
 10
714.1086082645959
 20
1797.097690401161
 30
0.0
 10
714.0146928305043
 20
1797.124949394339
 30
0.0
 10
713.9257615694865
 20
1797.152180676936
 30
0.0
  0
SPLINE
  5
1C5
330
166
100
AcDbEntity
  8
P-SANR-FIXT
100
AcDbSpline
210
0.0
220
0.0
230
1.0
 70
     8
 71
     3
 72
     8
 73
     4
 74
     0
 42
0.000000001
 43
0.0000000001
 40
0.6241104005714853
 40
0.6241104005714853
 40
0.6241104005714853
 40
0.6241104005714853
 40
0.6296296296296296
 40
0.6296296296296296
 40
0.6296296296296296
 40
0.6296296296296296
 10
713.0293792139247
 20
1797.474782725044
 30
0.0
 10
712.978109243043
 20
1797.496033460599
 30
0.0
 10
712.9270731748844
 20
1797.517674827208
 30
0.0
 10
712.876295975876
 20
1797.539695139311
 30
0.0
  0
SPLINE
  5
1C6
330
166
100
AcDbEntity
  8
P-SANR-FIXT
100
AcDbSpline
210
0.0
220
0.0
230
1.0
 70
     8
 71
     3
 72
     8
 73
     4
 74
     0
 42
0.000000001
 43
0.0000000001
 40
0.6658783393864561
 40
0.6658783393864561
 40
0.6658783393864561
 40
0.6658783393864561
 40
0.6666666666666666
 40
0.6666666666666666
 40
0.6666666666666666
 40
0.6666666666666666
 10
711.9153014073352
 20
1798.019558393718
 30
0.0
 10
711.9086331831392
 20
1798.023366436456
 30
0.0
 10
711.9019710907244
 20
1798.027182648777
 30
0.0
 10
711.8953149991364
 20
1798.031007081583
 30
0.0
  0
SPLINE
  5
1C7
330
166
100
AcDbEntity
  8
P-SANR-FIXT
100
AcDbSpline
210
0.0
220
0.0
230
1.0
 70
     8
 71
     3
 72
     8
 73
     4
 74
     0
 42
0.000000001
 43
0.0000000001
 40
0.7037037037037035
 40
0.7037037037037035
 40
0.7037037037037035
 40
0.7037037037037035
 40
0.7082954718094002
 40
0.7082954718094002
 40
0.7082954718094002
 40
0.7082954718094002
 10
710.9868712607804
 20
1798.629609822666
 30
0.0
 10
710.9504894574247
 20
1798.656851241565
 30
0.0
 10
710.9142384599039
 20
1798.684345004783
 30
0.0
 10
710.8781677480238
 20
1798.712090923845
 30
0.0
  0
SPLINE
  5
1C8
330
166
100
AcDbEntity
  8
P-SANR-FIXT
100
AcDbSpline
210
0.0
220
0.0
230
1.0
 70
     8
 71
     3
 72
     8
 73
     4
 74
     0
 42
0.000000001
 43
0.0000000001
 40
0.7407407407407405
 40
0.7407407407407405
 40
0.7407407407407405
 40
0.7407407407407405
 40
0.7496946330980094
 40
0.7496946330980094
 40
0.7496946330980094
 40
0.7496946330980094
 10
710.1483558051169
 20
1799.33453092986
 30
0.0
 10
710.0844955693684
 20
1799.394688330397
 30
0.0
 10
710.0219475559098
 20
1799.455867918938
 30
0.0
 10
709.9604882965683
 20
1799.517978233243
 30
0.0
  0
SPLINE
  5
1C9
330
166
100
AcDbEntity
  8
P-SANR-FIXT
100
AcDbSpline
210
0.0
220
0.0
230
1.0
 70
     8
 71
     3
 72
     9
 73
     5
 74
     0
 42
0.000000001
 43
0.0000000001
 40
0.7777777777777775
 40
0.7777777777777775
 40
0.7777777777777775
 40
0.7777777777777775
 40
0.7916666666666668
 40
0.8518518518518513
 40
0.8518518518518513
 40
0.8518518518518513
 40
0.8518518518518513
 10
709.4017724001393
 20
1800.124074877714
 30
0.0
 10
709.3140954998659
 20
1800.228324856474
 30
0.0
 10
708.8622000311999
 20
1800.797460272592
 30
0.0
 10
708.4194702657819
 20
1801.412118594225
 30
0.0
 10
708.1728300516622
 20
1801.954580807499
 30
0.0
  0
SPLINE
  5
1CA
330
166
100
AcDbEntity
  8
P-SANR-FIXT
100
AcDbSpline
210
0.0
220
0.0
230
1.0
 70
     8
 71
     3
 72
     8
 73
     4
 74
     0
 42
0.000000001
 43
0.0000000001
 40
0.8757703322873458
 40
0.8757703322873458
 40
0.8757703322873458
 40
0.8757703322873458
 40
0.8888888888888883
 40
0.8888888888888883
 40
0.8888888888888883
 40
0.8888888888888883
 10
707.891475928561
 20
1802.605693565021
 30
0.0
 10
707.8419014106044
 20
1802.725277768567
 30
0.0
 10
707.7994002212911
 20
1802.847385584042
 30
0.0
 10
707.7625361821323
 20
1802.971503544284
 30
0.0
  0
SPLINE
  5
1CB
330
166
100
AcDbEntity
  8
P-SANR-FIXT
100
AcDbSpline
210
0.0
220
0.0
230
1.0
 70
     8
 71
     3
 72
     8
 73
     4
 74
     0
 42
0.000000001
 43
0.0000000001
 40
0.9179305581492542
 40
0.9179305581492542
 40
0.9179305581492542
 40
0.9179305581492542
 40
0.9259259259259254
 40
0.9259259259259254
 40
0.9259259259259254
 40
0.9259259259259254
 10
707.4933567608792
 20
1803.785946121813
 30
0.0
 10
707.473200178124
 20
1803.862302359583
 30
0.0
 10
707.4556482262756
 20
1803.939623979862
 30
0.0
 10
707.4402112721992
 20
1804.017729276019
 30
0.0
  0
SPLINE
  5
1CC
330
166
100
AcDbEntity
  8
P-SANR-FIXT
100
AcDbSpline
210
0.0
220
0.0
230
1.0
 70
     8
 71
     3
 72
     8
 73
     4
 74
     0
 42
0.000000001
 43
0.0000000001
 40
0.9595613800974156
 40
0.9595613800974156
 40
0.9595613800974156
 40
0.9595613800974156
 40
0.9629629629629622
 40
0.9629629629629622
 40
0.9629629629629622
 40
0.9629629629629622
 10
707.2546363723855
 20
1805.006304127584
 30
0.0
 10
707.2501928024769
 20
1805.040303471951
 30
0.0
 10
707.24621823837
 20
1805.074483279071
 30
0.0
 10
707.2426361370324
 20
1805.108814081292
 30
0.0
  0
LINE
  5
1CD
330
166
100
AcDbEntity
  8
P-SANR-FIXT
100
AcDbLine
 10
692.7664074431877
 20
1806.245878730052
 30
0.0
 11
692.7664074431877
 21
1828.245878730052
 31
0.0
  0
SPLINE
  5
1CE
330
166
100
AcDbEntity
  8
P-SANR-FIXT
100
AcDbSpline
210
0.0
220
0.0
230
1.0
 70
     8
 71
     3
 72
     8
 73
     4
 74
     0
 42
0.000000001
 43
0.0000000001
 40
0.037037037037037
 40
0.037037037037037
 40
0.037037037037037
 40
0.037037037037037
 40
0.0404386199025767
 40
0.0404386199025767
 40
0.0404386199025767
 40
0.0404386199025767
 10
707.2412917387593
 20
1807.382604608658
 30
0.0
 10
707.2453772026517
 20
1807.41669870922
 30
0.0
 10
707.2496290919513
 20
1807.450729478532
 30
0.0
 10
707.2540478907901
 20
1807.484697330158
 30
0.0
  0
SPLINE
  5
1CF
330
166
100
AcDbEntity
  8
P-SANR-FIXT
100
AcDbSpline
210
0.0
220
0.0
230
1.0
 70
     8
 71
     3
 72
     8
 73
     4
 74
     0
 42
0.000000001
 43
0.0000000001
 40
0.0740740740740741
 40
0.0740740740740741
 40
0.0740740740740741
 40
0.0740740740740741
 40
0.0820694418507393
 40
0.0820694418507393
 40
0.0820694418507393
 40
0.0820694418507393
 10
707.4345568259939
 20
1808.474282055603
 30
0.0
 10
707.452813033264
 20
1808.551293343177
 30
0.0
 10
707.4720178266872
 20
1808.627979617533
 30
0.0
 10
707.4921774931527
 20
1808.704346249173
 30
0.0
  0
SPLINE
  5
1D0
330
166
100
AcDbEntity
  8
P-SANR-FIXT
100
AcDbSpline
210
0.0
220
0.0
230
1.0
 70
     8
 71
     3
 72
     8
 73
     4
 74
     0
 42
0.000000001
 43
0.0000000001
 40
0.1111111111111111
 40
0.1111111111111111
 40
0.1111111111111111
 40
0.1111111111111111
 40
0.1242296677126479
 40
0.1242296677126479
 40
0.1242296677126479
 40
0.1242296677126479
 10
707.7499522660335
 20
1809.524114089784
 30
0.0
 10
707.7945474116692
 20
1809.64572039403
 30
0.0
 10
707.8417746720721
 20
1809.766518696314
 30
0.0
 10
707.8915507367132
 20
1809.886383965988
 30
0.0
  0
SPLINE
  5
1D1
330
166
100
AcDbEntity
  8
P-SANR-FIXT
100
AcDbSpline
210
0.0
220
0.0
230
1.0
 70
     8
 71
     3
 72
     8
 73
     4
 74
     0
 42
0.000000001
 43
0.0000000001
 40
0.1481481481481481
 40
0.1481481481481481
 40
0.1481481481481481
 40
0.1481481481481481
 40
0.2222222222222222
 40
0.2222222222222222
 40
0.2222222222222222
 40
0.2222222222222222
 10
708.1887279125922
 20
1810.531956263228
 30
0.0
 10
708.5207052741856
 20
1811.187218740387
 30
0.0
 10
708.929103455953
 20
1811.805465099584
 30
0.0
 10
709.3989242138491
 20
1812.364186299248
 30
0.0
  0
SPLINE
  5
1D2
330
166
100
AcDbEntity
  8
P-SANR-FIXT
100
AcDbSpline
210
0.0
220
0.0
230
1.0
 70
     8
 71
     3
 72
     8
 73
     4
 74
     0
 42
0.000000001
 43
0.0000000001
 40
0.2503053669019884
 40
0.2503053669019884
 40
0.2503053669019884
 40
0.2503053669019884
 40
0.2592592592592593
 40
0.2592592592592593
 40
0.2592592592592593
 40
0.2592592592592593
 10
709.9593353636991
 20
1812.973911959042
 30
0.0
 10
710.0216177132538
 20
1813.035968090298
 30
0.0
 10
710.0847534990946
 20
1813.097146521547
 30
0.0
 10
710.1487286821285
 20
1813.157444716344
 30
0.0
  0
SPLINE
  5
1D3
330
166
100
AcDbEntity
  8
P-SANR-FIXT
100
AcDbSpline
210
0.0
220
0.0
230
1.0
 70
     8
 71
     3
 72
     8
 73
     4
 74
     0
 42
0.000000001
 43
0.0000000001
 40
0.2917045281905857
 40
0.2917045281905857
 40
0.2917045281905857
 40
0.2917045281905857
 40
0.2962962962962963
 40
0.2962962962962963
 40
0.2962962962962963
 40
0.2962962962962963
 10
710.8765020622179
 20
1813.777969770494
 30
0.0
 10
710.9123075246794
 20
1813.805547853485
 30
0.0
 10
710.9483112474978
 20
1813.83287364444
 30
0.0
 10
710.9845083328338
 20
1813.85994074021
 30
0.0
  0
SPLINE
  5
1D4
330
166
100
AcDbEntity
  8
P-SANR-FIXT
100
AcDbSpline
210
0.0
220
0.0
230
1.0
 70
     8
 71
     3
 72
     8
 73
     4
 74
     0
 42
0.000000001
 43
0.0000000001
 40
0.3333333333333333
 40
0.3333333333333333
 40
0.3333333333333333
 40
0.3333333333333333
 40
0.3341216606135308
 40
0.3341216606135308
 40
0.3341216606135308
 40
0.3341216606135308
 10
711.8955716427733
 20
1814.461055281136
 30
0.0
 10
711.902266881751
 20
1814.46491423776
 30
0.0
 10
711.9089666556507
 20
1814.468764047046
 30
0.0
 10
711.9156710370281
 20
1814.472604784055
 30
0.0
  0
SPLINE
  5
1D5
330
166
100
AcDbEntity
  8
P-SANR-FIXT
100
AcDbSpline
210
0.0
220
0.0
230
1.0
 70
     8
 71
     3
 72
     8
 73
     4
 74
     0
 42
0.000000001
 43
0.0000000001
 40
0.3703703703703703
 40
0.3703703703703703
 40
0.3703703703703703
 40
0.3703703703703703
 40
0.3758895994285096
 40
0.3758895994285096
 40
0.3758895994285096
 40
0.3758895994285096
 10
712.8764543069597
 20
1814.951923664002
 30
0.0
 10
712.9272342137079
 20
1814.973937026934
 30
0.0
 10
712.978284689388
 20
1814.995587697797
 30
0.0
 10
713.0295598169639
 20
1815.016849472423
 30
0.0
  0
SPLINE
  5
1D6
330
166
100
AcDbEntity
  8
P-SANR-FIXT
100
AcDbSpline
210
0.0
220
0.0
230
1.0
 70
     8
 71
     3
 72
     8
 73
     4
 74
     0
 42
0.000000001
 43
0.0000000001
 40
0.4074074074074074
 40
0.4074074074074074
 40
0.4074074074074074
 40
0.4074074074074074
 40
0.4171685138500565
 40
0.4171685138500565
 40
0.4171685138500565
 40
0.4171685138500565
 10
713.9230135588207
 20
1815.338897117447
 30
0.0
 10
714.0164296691034
 20
1815.367515286033
 30
0.0
 10
714.1101727948307
 20
1815.394650348495
 30
0.0
 10
714.2042232222565
 20
1815.420263467453
 30
0.0
  0
SPLINE
  5
1D7
330
166
100
AcDbEntity
  8
P-SANR-FIXT
100
AcDbSpline
210
0.0
220
0.0
230
1.0
 70
     8
 71
     3
 72
    11
 73
     7
 74
     0
 42
0.000000001
 43
0.0000000001
 40
0.4444444444444445
 40
0.4444444444444445
 40
0.4444444444444445
 40
0.4444444444444445
 40
0.4791666666666666
 40
0.5138888888888889
 40
0.5486111111111111
 40
0.5555555555555556
 40
0.5555555555555556
 40
0.5555555555555556
 40
0.5555555555555556
 10
714.9994206072225
 20
1815.598480233844
 30
0.0
 10
715.3395386254766
 20
1815.658256194564
 30
0.0
 10
716.0261572884847
 20
1815.736545142413
 30
0.0
 10
717.095895102905
 20
1815.747694685544
 30
0.0
 10
717.8621111207148
 20
1815.676201621769
 30
0.0
 10
718.2696240044837
 20
1815.609438447377
 30
0.0
 10
718.3373113793881
 20
1815.597530764915
 30
0.0
  0
SPLINE
  5
1D8
330
166
100
AcDbEntity
  8
P-SANR-FIXT
100
AcDbSpline
210
0.0
220
0.0
230
1.0
 70
     8
 71
     3
 72
     9
 73
     5
 74
     0
 42
0.000000001
 43
0.0000000001
 40
0.5827576196687005
 40
0.5827576196687005
 40
0.5827576196687005
 40
0.5827576196687005
 40
0.5833333333333333
 40
0.5925925925925926
 40
0.5925925925925926
 40
0.5925925925925926
 40
0.5925925925925926
 10
719.1255628712804
 20
1815.421121023853
 30
0.0
 10
719.1310981579761
 20
1815.419615469975
 30
0.0
 10
719.2256577848895
 20
1815.393800288955
 30
0.0
 10
719.320217310998
 20
1815.366344676328
 30
0.0
 10
719.4090828677609
 20
1815.339123929808
 30
0.0
  0
SPLINE
  5
1D9
330
166
100
AcDbEntity
  8
P-SANR-FIXT
100
AcDbSpline
210
0.0
220
0.0
230
1.0
 70
     8
 71
     3
 72
     8
 73
     4
 74
     0
 42
0.000000001
 43
0.0000000001
 40
0.6240658525099024
 40
0.6240658525099024
 40
0.6240658525099024
 40
0.6240658525099024
 40
0.6296296296296296
 40
0.6296296296296296
 40
0.6296296296296296
 40
0.6296296296296296
 10
720.3035242402274
 20
1815.017152483698
 30
0.0
 10
720.355173332516
 20
1814.995741525902
 30
0.0
 10
720.406586120116
 20
1814.973932683886
 30
0.0
 10
720.4577374194983
 20
1814.951737668688
 30
0.0
  0
SPLINE
  5
1DA
330
166
100
AcDbEntity
  8
P-SANR-FIXT
100
AcDbSpline
210
0.0
220
0.0
230
1.0
 70
     8
 71
     3
 72
     8
 73
     4
 74
     0
 42
0.000000001
 43
0.0000000001
 40
0.6658473581057616
 40
0.6658473581057616
 40
0.6658473581057616
 40
0.6658473581057616
 40
0.6666666666666666
 40
0.6666666666666666
 40
0.6666666666666666
 40
0.6666666666666666
 10
721.4175515747058
 20
1814.472174566983
 30
0.0
 10
721.4244822406199
 20
1814.468214358984
 30
0.0
 10
721.4314063512468
 20
1814.464245276392
 30
0.0
 10
721.4383240536252
 20
1814.460267261547
 30
0.0
  0
SPLINE
  5
1DB
330
166
100
AcDbEntity
  8
P-SANR-FIXT
100
AcDbSpline
210
0.0
220
0.0
230
1.0
 70
     8
 71
     3
 72
     8
 73
     4
 74
     0
 42
0.000000001
 43
0.0000000001
 40
0.7037037037037035
 40
0.7037037037037035
 40
0.7037037037037035
 40
0.7037037037037035
 40
0.7082274468068875
 40
0.7082274468068875
 40
0.7082274468068875
 40
0.7082274468068875
 10
722.3472081025581
 20
1813.860867567363
 30
0.0
 10
722.3830834616761
 20
1813.833984978775
 30
0.0
 10
722.4188328765149
 20
1813.806856652804
 30
0.0
 10
722.4544086431856
 20
1813.779483144607
 30
0.0
  0
SPLINE
  5
1DC
330
166
100
AcDbEntity
  8
P-SANR-FIXT
100
AcDbSpline
210
0.0
220
0.0
230
1.0
 70
     8
 71
     3
 72
     8
 73
     4
 74
     0
 42
0.000000001
 43
0.0000000001
 40
0.7407407407407405
 40
0.7407407407407405
 40
0.7407407407407405
 40
0.7407407407407405
 40
0.7495832607951038
 40
0.7495832607951038
 40
0.7495832607951038
 40
0.7495832607951038
 10
723.1865349479536
 20
1813.15486760884
 30
0.0
 10
723.2496554010253
 20
1813.095385030066
 30
0.0
 10
723.3114916084903
 20
1813.034910611928
 30
0.0
 10
723.3722579239796
 20
1812.973533455252
 30
0.0
  0
SPLINE
  5
1DD
330
166
100
AcDbEntity
  8
P-SANR-FIXT
100
AcDbSpline
210
0.0
220
0.0
230
1.0
 70
     8
 71
     3
 72
     9
 73
     5
 74
     0
 42
0.000000001
 43
0.0000000001
 40
0.7777777777777775
 40
0.7777777777777775
 40
0.7777777777777775
 40
0.7777777777777775
 40
0.7916666666666668
 40
0.8518518518518513
 40
0.8518518518518513
 40
0.8518518518518513
 40
0.8518518518518513
 10
723.9335086589942
 20
1812.364738434409
 30
0.0
 10
724.0211878791836
 20
1812.260468044929
 30
0.0
 10
724.4729952971669
 20
1811.691340182099
 30
0.0
 10
724.9147990660937
 20
1811.077599309775
 30
0.0
 10
725.1609645832224
 20
1810.535648626776
 30
0.0
  0
SPLINE
  5
1DE
330
166
100
AcDbEntity
  8
P-SANR-FIXT
100
AcDbSpline
210
0.0
220
0.0
230
1.0
 70
     8
 71
     3
 72
     8
 73
     4
 74
     0
 42
0.000000001
 43
0.0000000001
 40
0.8757314509554761
 40
0.8757314509554761
 40
0.8757314509554761
 40
0.8757314509554761
 40
0.8888888888888883
 40
0.8888888888888883
 40
0.8888888888888883
 40
0.8888888888888883
 10
725.4413662071306
 20
1809.886159714988
 30
0.0
 10
725.4910193599003
 20
1809.766319601273
 30
0.0
 10
725.533577968715
 20
1809.643924387286
 30
0.0
 10
725.5704862165064
 20
1809.519495215914
 30
0.0
  0
SPLINE
  5
1DF
330
166
100
AcDbEntity
  8
P-SANR-FIXT
100
AcDbSpline
210
0.0
220
0.0
230
1.0
 70
     8
 71
     3
 72
     8
 73
     4
 74
     0
 42
0.000000001
 43
0.0000000001
 40
0.9179169856268122
 40
0.9179169856268122
 40
0.9179169856268122
 40
0.9179169856268122
 40
0.9259259259259254
 40
0.9259259259259254
 40
0.9259259259259254
 40
0.9259259259259254
 10
725.8392859412784
 20
1808.705889377135
 30
0.0
 10
725.8594612973451
 20
1808.629432508153
 30
0.0
 10
725.8770290672895
 20
1808.552002326581
 30
0.0
 10
725.8924801709298
 20
1808.473782291035
 30
0.0
  0
SPLINE
  5
1E0
330
166
100
AcDbEntity
  8
P-SANR-FIXT
100
AcDbSpline
210
0.0
220
0.0
230
1.0
 70
     8
 71
     3
 72
     8
 73
     4
 74
     0
 42
0.000000001
 43
0.0000000001
 40
0.9595589625567555
 40
0.9595589625567555
 40
0.9595589625567555
 40
0.9595589625567555
 40
0.9629629629629622
 40
0.9629629629629622
 40
0.9629629629629622
 40
0.9629629629629622
 10
726.0779972519765
 20
1807.48548599129
 30
0.0
 10
726.0824459212831
 20
1807.451466150643
 30
0.0
 10
726.0864256708563
 20
1807.417265018949
 30
0.0
 10
726.0900130785175
 20
1807.382912217056
 30
0.0
  0
SPLINE
  5
1E1
330
166
100
AcDbEntity
  8
P-SANR-FIXT
100
AcDbSpline
210
0.0
220
0.0
230
1.0
 70
     8
 71
     3
 72
     9
 73
     5
 74
     0
 42
0.000000001
 43
0.0000000001
 40
-1.0
 40
-1.0
 40
-1.0
 40
-1.0
 40
-0.5
 40
0.0
 40
0.0
 40
0.0
 40
0.0
 10
737.1338545798121
 20
1803.745878730052
 30
0.0
 10
737.1943525682504
 20
1804.160352177205
 30
0.0
 10
737.2845679190954
 20
1804.991492291025
 30
0.0
 10
737.313222017877
 20
1805.827018843872
 30
0.0
 10
737.312158754252
 20
1806.245878730053
 30
0.0
  0
SPLINE
  5
1E2
330
166
100
AcDbEntity
  8
P-SANR-FIXT
100
AcDbSpline
210
0.0
220
0.0
230
1.0
 70
     8
 71
     3
 72
     9
 73
     5
 74
     0
 42
0.000000001
 43
0.0000000001
 40
-1.0
 40
-1.0
 40
-1.0
 40
-1.0
 40
-0.5
 40
0.0
 40
0.0
 40
0.0
 40
0.0
 10
737.312158754252
 20
1806.245878730053
 30
0.0
 10
737.313222017877
 20
1806.664738616232
 30
0.0
 10
737.2845679190954
 20
1807.500265169079
 30
0.0
 10
737.1943525682504
 20
1808.331405282899
 30
0.0
 10
737.1338545798122
 20
1808.745878730052
 30
0.0
  0
LINE
  5
1E3
330
166
100
AcDbEntity
  8
P-SANR-FIXT
100
AcDbLine
 10
751.1525715689542
 20
1789.342754272693
 30
0.0
 11
751.1525715689542
 21
1803.745878730052
 31
0.0
  0
LINE
  5
1E4
330
166
100
AcDbEntity
  8
P-SANR-FIXT
100
AcDbLine
 10
751.1525715689539
 20
1808.745878730051
 30
0.0
 11
751.1525715689539
 21
1823.149003187412
 31
0.0
  0
SPLINE
  5
1E5
330
166
100
AcDbEntity
  8
P-SANR-FIXT
100
AcDbSpline
210
0.0
220
0.0
230
1.0
 70
     8
 71
     3
 72
     9
 73
     5
 74
     0
 42
0.000000001
 43
0.0000000001
 40
-1.0
 40
-1.0
 40
-1.0
 40
-1.0
 40
-0.5
 40
0.0
 40
0.0
 40
0.0
 40
0.0
 10
757.0206561321237
 20
1806.245878730053
 30
0.0
 10
757.0195928684988
 20
1805.827018843872
 30
0.0
 10
757.0482469672805
 20
1804.991492291025
 30
0.0
 10
757.1384623181246
 20
1804.160352177205
 30
0.0
 10
757.1989603065623
 20
1803.745878730052
 30
0.0
  0
LINE
  5
1E6
330
166
100
AcDbEntity
  8
P-SANR-FIXT
100
AcDbLine
 10
755.6664074431879
 20
1790.370706035642
 30
0.0
 11
755.6664074431879
 21
1803.745878730052
 31
0.0
  0
LINE
  5
1E7
330
166
100
AcDbEntity
  8
P-SANR-FIXT
100
AcDbLine
 10
755.6664074431879
 20
1808.745878730051
 30
0.0
 11
755.6664074431879
 21
1822.121051424462
 31
0.0
  0
SPLINE
  5
1E8
330
166
100
AcDbEntity
  8
P-SANR-FIXT
100
AcDbSpline
210
0.0
220
0.0
230
1.0
 70
     8
 71
     3
 72
     9
 73
     5
 74
     0
 42
0.000000001
 43
0.0000000001
 40
-1.0
 40
-1.0
 40
-1.0
 40
-1.0
 40
-0.5
 40
0.0
 40
0.0
 40
0.0
 40
0.0
 10
757.1989603065623
 20
1808.745878730052
 30
0.0
 10
757.1384623181246
 20
1808.331405282899
 30
0.0
 10
757.0482469672803
 20
1807.500265169079
 30
0.0
 10
757.0195928684988
 20
1806.664738616232
 30
0.0
 10
757.0206561321237
 20
1806.245878730053
 30
0.0
  0
SPLINE
  5
1E9
330
166
100
AcDbEntity
  8
P-SANR-FIXT
100
AcDbSpline
210
0.0
220
0.0
230
1.0
 70
     8
 71
     3
 72
     8
 73
     4
 74
     0
 42
0.000000001
 43
0.0000000001
 40
0.037037037037037
 40
0.037037037037037
 40
0.037037037037037
 40
0.037037037037037
 40
0.0404410374432439
 40
0.0404410374432439
 40
0.0404410374432439
 40
0.0404410374432439
 10
786.0913334225624
 20
1805.109156738862
 30
0.0
 10
786.0872416764686
 20
1805.075040321696
 30
0.0
 10
786.0829835768953
 20
1805.040987577459
 30
0.0
 10
786.0785586620838
 20
1805.006998115587
 30
0.0
  0
SPLINE
  5
1EA
330
166
100
AcDbEntity
  8
P-SANR-FIXT
100
AcDbSpline
210
0.0
220
0.0
230
1.0
 70
     8
 71
     3
 72
     8
 73
     4
 74
     0
 42
0.000000001
 43
0.0000000001
 40
0.0740740740740741
 40
0.0740740740740741
 40
0.0740740740740741
 40
0.0740740740740741
 40
0.0820830143731869
 40
0.0820830143731869
 40
0.0820830143731869
 40
0.0820830143731869
 10
785.8980977908776
 20
1804.017661910391
 30
0.0
 10
785.8798249614522
 20
1803.940543932045
 30
0.0
 10
785.860603440484
 20
1803.863754902728
 30
0.0
 10
785.8404272138537
 20
1803.787289735608
 30
0.0
  0
SPLINE
  5
1EB
330
166
100
AcDbEntity
  8
P-SANR-FIXT
100
AcDbSpline
210
0.0
220
0.0
230
1.0
 70
     8
 71
     3
 72
     8
 73
     4
 74
     0
 42
0.000000001
 43
0.0000000001
 40
0.1111111111111111
 40
0.1111111111111111
 40
0.1111111111111111
 40
0.1111111111111111
 40
0.1242685490445217
 40
0.1242685490445217
 40
0.1242685490445217
 40
0.1242685490445217
 10
785.5831318743354
 20
1802.968375805724
 30
0.0
 10
785.5384862460368
 20
1802.846502523775
 30
0.0
 10
785.4912050972347
 20
1802.725453564726
 30
0.0
 10
785.4413684264828
 20
1802.60535078805
 30
0.0
  0
SPLINE
  5
1EC
330
166
100
AcDbEntity
  8
P-SANR-FIXT
100
AcDbSpline
210
0.0
220
0.0
230
1.0
 70
     8
 71
     3
 72
     8
 73
     4
 74
     0
 42
0.000000001
 43
0.0000000001
 40
0.1481481481481481
 40
0.1481481481481481
 40
0.1481481481481481
 40
0.1481481481481481
 40
0.2222222222222222
 40
0.2222222222222222
 40
0.2222222222222222
 40
0.2222222222222222
 10
785.1452461150038
 20
1801.961501087705
 30
0.0
 10
784.8139350717628
 20
1801.306938742124
 30
0.0
 10
784.4062287371879
 20
1800.689375368051
 30
0.0
 10
783.9364018059482
 20
1800.130555192787
 30
0.0
  0
SPLINE
  5
1ED
330
166
100
AcDbEntity
  8
P-SANR-FIXT
100
AcDbSpline
210
0.0
220
0.0
230
1.0
 70
     8
 71
     3
 72
     8
 73
     4
 74
     0
 42
0.000000001
 43
0.0000000001
 40
0.2504167392048925
 40
0.2504167392048925
 40
0.2504167392048925
 40
0.2504167392048925
 40
0.2592592592592593
 40
0.2592592592592593
 40
0.2592592592592593
 40
0.2592592592592593
 10
783.3734039700678
 20
1799.518114088838
 30
0.0
 10
783.311826304998
 20
1799.456785045134
 30
0.0
 10
783.2494112689245
 20
1799.396306071213
 30
0.0
 10
783.1861738711176
 20
1799.33668123484
 30
0.0
  0
SPLINE
  5
1EE
330
166
100
AcDbEntity
  8
P-SANR-FIXT
100
AcDbSpline
210
0.0
220
0.0
230
1.0
 70
     8
 71
     3
 72
     8
 73
     4
 74
     0
 42
0.000000001
 43
0.0000000001
 40
0.2917725531931123
 40
0.2917725531931123
 40
0.2917725531931123
 40
0.2917725531931123
 40
0.2962962962962963
 40
0.2962962962962963
 40
0.2962962962962963
 40
0.2962962962962963
 10
782.456094270198
 20
1798.7139897392
 30
0.0
 10
782.4207805746936
 20
1798.686783216792
 30
0.0
 10
782.3852751268956
 20
1798.65982206595
 30
0.0
 10
782.3495828571783
 20
1798.633112620178
 30
0.0
  0
SPLINE
  5
1EF
330
166
100
AcDbEntity
  8
P-SANR-FIXT
100
AcDbSpline
210
0.0
220
0.0
230
1.0
 70
     8
 71
     3
 72
     8
 73
     4
 74
     0
 42
0.000000001
 43
0.0000000001
 40
0.3333333333333333
 40
0.3333333333333333
 40
0.3333333333333333
 40
0.3333333333333333
 40
0.3341526418942318
 40
0.3341526418942318
 40
0.3341526418942318
 40
0.3341526418942318
 10
781.4380548828179
 20
1798.031173579417
 30
0.0
 10
781.4310963597259
 20
1798.027159508048
 30
0.0
 10
781.4241330326064
 20
1798.023155393993
 30
0.0
 10
781.4171648184594
 20
1798.01916115142
 30
0.0
  0
SPLINE
  5
1F0
330
166
100
AcDbEntity
  8
P-SANR-FIXT
100
AcDbSpline
210
0.0
220
0.0
230
1.0
 70
     8
 71
     3
 72
     8
 73
     4
 74
     0
 42
0.000000001
 43
0.0000000001
 40
0.3703703703703703
 40
0.3703703703703703
 40
0.3703703703703703
 40
0.3703703703703703
 40
0.3759341474900916
 40
0.3759341474900916
 40
0.3759341474900916
 40
0.3759341474900916
 10
780.4575861585448
 20
1797.540163961796
 30
0.0
 10
780.4064320320982
 20
1797.517975743363
 30
0.0
 10
780.3550042628701
 20
1797.496156908738
 30
0.0
 10
780.3033495181191
 20
1797.474734135688
 30
0.0
  0
SPLINE
  5
1F1
330
166
100
AcDbEntity
  8
P-SANR-FIXT
100
AcDbSpline
210
0.0
220
0.0
230
1.0
 70
     8
 71
     3
 72
     8
 73
     4
 74
     0
 42
0.000000001
 43
0.0000000001
 40
0.4074074074074074
 40
0.4074074074074074
 40
0.4074074074074074
 40
0.4074074074074074
 40
0.4172423803312951
 40
0.4172423803312951
 40
0.4172423803312951
 40
0.4172423803312951
 10
779.4118094259522
 20
1797.153305452955
 30
0.0
 10
779.3177542231411
 20
1797.1244815364
 30
0.0
 10
779.2233650089752
 20
1797.097162182618
 30
0.0
 10
779.1286607418222
 20
1797.071386114162
 30
0.0
  0
SPLINE
  5
1F2
330
166
100
AcDbEntity
  8
P-SANR-FIXT
100
AcDbSpline
210
0.0
220
0.0
230
1.0
 70
     8
 71
     3
 72
    11
 73
     7
 74
     0
 42
0.000000001
 43
0.0000000001
 40
0.4444444444444445
 40
0.4444444444444445
 40
0.4444444444444445
 40
0.4444444444444445
 40
0.4791666666666666
 40
0.5138888888888889
 40
0.5486111111111111
 40
0.5555555555555556
 40
0.5555555555555556
 40
0.5555555555555556
 40
0.5555555555555556
 10
778.3360179602411
 20
1796.893745245047
 30
0.0
 10
777.9960250853699
 20
1796.833928666414
 30
0.0
 10
777.3094929115419
 20
1796.755437508224
 30
0.0
 10
776.239782953127
 20
1796.743911068056
 30
0.0
 10
775.4734679474437
 20
1796.815160717784
 30
0.0
 10
775.065827028455
 20
1796.881863486151
 30
0.0
 10
774.9981161176382
 20
1796.893762988663
 30
0.0
  0
SPLINE
  5
1F3
330
166
100
AcDbEntity
  8
P-SANR-FIXT
100
AcDbSpline
210
0.0
220
0.0
230
1.0
 70
     8
 71
     3
 72
     9
 73
     5
 74
     0
 42
0.000000001
 43
0.0000000001
 40
0.5828314861499377
 40
0.5828314861499377
 40
0.5828314861499377
 40
0.5828314861499377
 40
0.5833333333333333
 40
0.5925925925925926
 40
0.5925925925925926
 40
0.5925925925925926
 40
0.5925925925925926
 10
774.2073465478942
 20
1797.070736075156
 30
0.0
 10
774.2025183615896
 20
1797.072050057963
 30
0.0
 10
774.1086082645955
 20
1797.097690401161
 30
0.0
 10
774.0146928305057
 20
1797.124949394338
 30
0.0
 10
773.9257615694859
 20
1797.152180676936
 30
0.0
  0
SPLINE
  5
1F4
330
166
100
AcDbEntity
  8
P-SANR-FIXT
100
AcDbSpline
210
0.0
220
0.0
230
1.0
 70
     8
 71
     3
 72
     8
 73
     4
 74
     0
 42
0.000000001
 43
0.0000000001
 40
0.6241104005714853
 40
0.6241104005714853
 40
0.6241104005714853
 40
0.6241104005714853
 40
0.6296296296296296
 40
0.6296296296296296
 40
0.6296296296296296
 40
0.6296296296296296
 10
773.0293792139247
 20
1797.474782725044
 30
0.0
 10
772.9781092430429
 20
1797.496033460599
 30
0.0
 10
772.9270731748845
 20
1797.517674827208
 30
0.0
 10
772.876295975876
 20
1797.539695139311
 30
0.0
  0
SPLINE
  5
1F5
330
166
100
AcDbEntity
  8
P-SANR-FIXT
100
AcDbSpline
210
0.0
220
0.0
230
1.0
 70
     8
 71
     3
 72
     8
 73
     4
 74
     0
 42
0.000000001
 43
0.0000000001
 40
0.6658783393864561
 40
0.6658783393864561
 40
0.6658783393864561
 40
0.6658783393864561
 40
0.6666666666666666
 40
0.6666666666666666
 40
0.6666666666666666
 40
0.6666666666666666
 10
771.9153014073351
 20
1798.019558393718
 30
0.0
 10
771.9086331831392
 20
1798.023366436456
 30
0.0
 10
771.9019710907243
 20
1798.027182648777
 30
0.0
 10
771.8953149991364
 20
1798.031007081583
 30
0.0
  0
SPLINE
  5
1F6
330
166
100
AcDbEntity
  8
P-SANR-FIXT
100
AcDbSpline
210
0.0
220
0.0
230
1.0
 70
     8
 71
     3
 72
     8
 73
     4
 74
     0
 42
0.000000001
 43
0.0000000001
 40
0.7037037037037035
 40
0.7037037037037035
 40
0.7037037037037035
 40
0.7037037037037035
 40
0.7082954718094002
 40
0.7082954718094002
 40
0.7082954718094002
 40
0.7082954718094002
 10
770.9868712607804
 20
1798.629609822666
 30
0.0
 10
770.9504894574247
 20
1798.656851241565
 30
0.0
 10
770.9142384599037
 20
1798.684345004783
 30
0.0
 10
770.8781677480238
 20
1798.712090923845
 30
0.0
  0
SPLINE
  5
1F7
330
166
100
AcDbEntity
  8
P-SANR-FIXT
100
AcDbSpline
210
0.0
220
0.0
230
1.0
 70
     8
 71
     3
 72
     8
 73
     4
 74
     0
 42
0.000000001
 43
0.0000000001
 40
0.7407407407407405
 40
0.7407407407407405
 40
0.7407407407407405
 40
0.7407407407407405
 40
0.7496946330980094
 40
0.7496946330980094
 40
0.7496946330980094
 40
0.7496946330980094
 10
770.1483558051168
 20
1799.33453092986
 30
0.0
 10
770.0844955693683
 20
1799.394688330397
 30
0.0
 10
770.0219475559097
 20
1799.455867918938
 30
0.0
 10
769.9604882965684
 20
1799.517978233243
 30
0.0
  0
SPLINE
  5
1F8
330
166
100
AcDbEntity
  8
P-SANR-FIXT
100
AcDbSpline
210
0.0
220
0.0
230
1.0
 70
     8
 71
     3
 72
     9
 73
     5
 74
     0
 42
0.000000001
 43
0.0000000001
 40
0.7777777777777775
 40
0.7777777777777775
 40
0.7777777777777775
 40
0.7777777777777775
 40
0.7916666666666668
 40
0.8518518518518513
 40
0.8518518518518513
 40
0.8518518518518513
 40
0.8518518518518513
 10
769.4017724001394
 20
1800.124074877714
 30
0.0
 10
769.314095499866
 20
1800.228324856474
 30
0.0
 10
768.8622000312
 20
1800.797460272592
 30
0.0
 10
768.4194702657814
 20
1801.412118594225
 30
0.0
 10
768.1728300516623
 20
1801.954580807499
 30
0.0
  0
SPLINE
  5
1F9
330
166
100
AcDbEntity
  8
P-SANR-FIXT
100
AcDbSpline
210
0.0
220
0.0
230
1.0
 70
     8
 71
     3
 72
     8
 73
     4
 74
     0
 42
0.000000001
 43
0.0000000001
 40
0.8757703322873458
 40
0.8757703322873458
 40
0.8757703322873458
 40
0.8757703322873458
 40
0.8888888888888883
 40
0.8888888888888883
 40
0.8888888888888883
 40
0.8888888888888883
 10
767.8914759285611
 20
1802.605693565021
 30
0.0
 10
767.8419014106045
 20
1802.725277768567
 30
0.0
 10
767.7994002212912
 20
1802.847385584042
 30
0.0
 10
767.7625361821323
 20
1802.971503544284
 30
0.0
  0
SPLINE
  5
1FA
330
166
100
AcDbEntity
  8
P-SANR-FIXT
100
AcDbSpline
210
0.0
220
0.0
230
1.0
 70
     8
 71
     3
 72
     8
 73
     4
 74
     0
 42
0.000000001
 43
0.0000000001
 40
0.9179305581492542
 40
0.9179305581492542
 40
0.9179305581492542
 40
0.9179305581492542
 40
0.9259259259259254
 40
0.9259259259259254
 40
0.9259259259259254
 40
0.9259259259259254
 10
767.4933567608792
 20
1803.785946121813
 30
0.0
 10
767.4732001781242
 20
1803.862302359583
 30
0.0
 10
767.4556482262754
 20
1803.939623979862
 30
0.0
 10
767.4402112721992
 20
1804.017729276019
 30
0.0
  0
SPLINE
  5
1FB
330
166
100
AcDbEntity
  8
P-SANR-FIXT
100
AcDbSpline
210
0.0
220
0.0
230
1.0
 70
     8
 71
     3
 72
     8
 73
     4
 74
     0
 42
0.000000001
 43
0.0000000001
 40
0.9595613800974156
 40
0.9595613800974156
 40
0.9595613800974156
 40
0.9595613800974156
 40
0.9629629629629622
 40
0.9629629629629622
 40
0.9629629629629622
 40
0.9629629629629622
 10
767.2546363723854
 20
1805.006304127584
 30
0.0
 10
767.2501928024768
 20
1805.040303471951
 30
0.0
 10
767.24621823837
 20
1805.074483279071
 30
0.0
 10
767.2426361370323
 20
1805.108814081292
 30
0.0
  0
SPLINE
  5
1FC
330
166
100
AcDbEntity
  8
P-SANR-FIXT
100
AcDbSpline
210
0.0
220
0.0
230
1.0
 70
     8
 71
     3
 72
     8
 73
     4
 74
     0
 42
0.000000001
 43
0.0000000001
 40
0.037037037037037
 40
0.037037037037037
 40
0.037037037037037
 40
0.037037037037037
 40
0.0404386199025781
 40
0.0404386199025781
 40
0.0404386199025781
 40
0.0404386199025781
 10
767.2412917387592
 20
1807.382604608658
 30
0.0
 10
767.2453772026516
 20
1807.41669870922
 30
0.0
 10
767.2496290919512
 20
1807.450729478532
 30
0.0
 10
767.25404789079
 20
1807.484697330158
 30
0.0
  0
SPLINE
  5
1FD
330
166
100
AcDbEntity
  8
P-SANR-FIXT
100
AcDbSpline
210
0.0
220
0.0
230
1.0
 70
     8
 71
     3
 72
     8
 73
     4
 74
     0
 42
0.000000001
 43
0.0000000001
 40
0.0740740740740741
 40
0.0740740740740741
 40
0.0740740740740741
 40
0.0740740740740741
 40
0.0820694418507408
 40
0.0820694418507408
 40
0.0820694418507408
 40
0.0820694418507408
 10
767.4345568259938
 20
1808.474282055603
 30
0.0
 10
767.4528130332639
 20
1808.551293343177
 30
0.0
 10
767.4720178266873
 20
1808.627979617533
 30
0.0
 10
767.4921774931526
 20
1808.704346249173
 30
0.0
  0
SPLINE
  5
1FE
330
166
100
AcDbEntity
  8
P-SANR-FIXT
100
AcDbSpline
210
0.0
220
0.0
230
1.0
 70
     8
 71
     3
 72
     8
 73
     4
 74
     0
 42
0.000000001
 43
0.0000000001
 40
0.1111111111111111
 40
0.1111111111111111
 40
0.1111111111111111
 40
0.1111111111111111
 40
0.1242296677126489
 40
0.1242296677126489
 40
0.1242296677126489
 40
0.1242296677126489
 10
767.7499522660335
 20
1809.524114089784
 30
0.0
 10
767.7945474116691
 20
1809.64572039403
 30
0.0
 10
767.8417746720721
 20
1809.766518696314
 30
0.0
 10
767.8915507367134
 20
1809.886383965988
 30
0.0
  0
SPLINE
  5
1FF
330
166
100
AcDbEntity
  8
P-SANR-FIXT
100
AcDbSpline
210
0.0
220
0.0
230
1.0
 70
     8
 71
     3
 72
     8
 73
     4
 74
     0
 42
0.000000001
 43
0.0000000001
 40
0.1481481481481481
 40
0.1481481481481481
 40
0.1481481481481481
 40
0.1481481481481481
 40
0.2222222222222222
 40
0.2222222222222222
 40
0.2222222222222222
 40
0.2222222222222222
 10
768.1887279125921
 20
1810.531956263228
 30
0.0
 10
768.5207052741857
 20
1811.187218740387
 30
0.0
 10
768.9291034559531
 20
1811.805465099584
 30
0.0
 10
769.3989242138491
 20
1812.364186299248
 30
0.0
  0
SPLINE
  5
200
330
166
100
AcDbEntity
  8
P-SANR-FIXT
100
AcDbSpline
210
0.0
220
0.0
230
1.0
 70
     8
 71
     3
 72
     8
 73
     4
 74
     0
 42
0.000000001
 43
0.0000000001
 40
0.2503053669019864
 40
0.2503053669019864
 40
0.2503053669019864
 40
0.2503053669019864
 40
0.2592592592592593
 40
0.2592592592592593
 40
0.2592592592592593
 40
0.2592592592592593
 10
769.959335363699
 20
1812.973911959042
 30
0.0
 10
770.0216177132537
 20
1813.035968090298
 30
0.0
 10
770.0847534990946
 20
1813.097146521547
 30
0.0
 10
770.1487286821285
 20
1813.157444716344
 30
0.0
  0
SPLINE
  5
201
330
166
100
AcDbEntity
  8
P-SANR-FIXT
100
AcDbSpline
210
0.0
220
0.0
230
1.0
 70
     8
 71
     3
 72
     8
 73
     4
 74
     0
 42
0.000000001
 43
0.0000000001
 40
0.2917045281905922
 40
0.2917045281905922
 40
0.2917045281905922
 40
0.2917045281905922
 40
0.2962962962962963
 40
0.2962962962962963
 40
0.2962962962962963
 40
0.2962962962962963
 10
770.8765020622179
 20
1813.777969770495
 30
0.0
 10
770.9123075246796
 20
1813.805547853485
 30
0.0
 10
770.9483112474978
 20
1813.83287364444
 30
0.0
 10
770.9845083328339
 20
1813.85994074021
 30
0.0
  0
SPLINE
  5
202
330
166
100
AcDbEntity
  8
P-SANR-FIXT
100
AcDbSpline
210
0.0
220
0.0
230
1.0
 70
     8
 71
     3
 72
     8
 73
     4
 74
     0
 42
0.000000001
 43
0.0000000001
 40
0.3333333333333333
 40
0.3333333333333333
 40
0.3333333333333333
 40
0.3333333333333333
 40
0.3341216606135373
 40
0.3341216606135373
 40
0.3341216606135373
 40
0.3341216606135373
 10
771.8955716427732
 20
1814.461055281136
 30
0.0
 10
771.9022668817509
 20
1814.46491423776
 30
0.0
 10
771.9089666556507
 20
1814.468764047046
 30
0.0
 10
771.9156710370282
 20
1814.472604784055
 30
0.0
  0
SPLINE
  5
203
330
166
100
AcDbEntity
  8
P-SANR-FIXT
100
AcDbSpline
210
0.0
220
0.0
230
1.0
 70
     8
 71
     3
 72
     8
 73
     4
 74
     0
 42
0.000000001
 43
0.0000000001
 40
0.3703703703703703
 40
0.3703703703703703
 40
0.3703703703703703
 40
0.3703703703703703
 40
0.3758895994285087
 40
0.3758895994285087
 40
0.3758895994285087
 40
0.3758895994285087
 10
772.8764543069596
 20
1814.951923664002
 30
0.0
 10
772.9272342137078
 20
1814.973937026934
 30
0.0
 10
772.9782846893879
 20
1814.995587697797
 30
0.0
 10
773.0295598169638
 20
1815.016849472424
 30
0.0
  0
SPLINE
  5
204
330
166
100
AcDbEntity
  8
P-SANR-FIXT
100
AcDbSpline
210
0.0
220
0.0
230
1.0
 70
     8
 71
     3
 72
     8
 73
     4
 74
     0
 42
0.000000001
 43
0.0000000001
 40
0.4074074074074074
 40
0.4074074074074074
 40
0.4074074074074074
 40
0.4074074074074074
 40
0.4171685138500565
 40
0.4171685138500565
 40
0.4171685138500565
 40
0.4171685138500565
 10
773.9230135588208
 20
1815.338897117447
 30
0.0
 10
774.0164296691034
 20
1815.367515286033
 30
0.0
 10
774.1101727948307
 20
1815.394650348495
 30
0.0
 10
774.2042232222566
 20
1815.420263467453
 30
0.0
  0
SPLINE
  5
205
330
166
100
AcDbEntity
  8
P-SANR-FIXT
100
AcDbSpline
210
0.0
220
0.0
230
1.0
 70
     8
 71
     3
 72
    11
 73
     7
 74
     0
 42
0.000000001
 43
0.0000000001
 40
0.4444444444444445
 40
0.4444444444444445
 40
0.4444444444444445
 40
0.4444444444444445
 40
0.4791666666666666
 40
0.5138888888888889
 40
0.5486111111111111
 40
0.5555555555555556
 40
0.5555555555555556
 40
0.5555555555555556
 40
0.5555555555555556
 10
774.9994206072224
 20
1815.598480233844
 30
0.0
 10
775.3395386254765
 20
1815.658256194564
 30
0.0
 10
776.0261572884847
 20
1815.736545142413
 30
0.0
 10
777.0958951029053
 20
1815.747694685544
 30
0.0
 10
777.8621111207147
 20
1815.676201621769
 30
0.0
 10
778.2696240044838
 20
1815.609438447377
 30
0.0
 10
778.337311379388
 20
1815.597530764915
 30
0.0
  0
SPLINE
  5
206
330
166
100
AcDbEntity
  8
P-SANR-FIXT
100
AcDbSpline
210
0.0
220
0.0
230
1.0
 70
     8
 71
     3
 72
     9
 73
     5
 74
     0
 42
0.000000001
 43
0.0000000001
 40
0.5827576196687005
 40
0.5827576196687005
 40
0.5827576196687005
 40
0.5827576196687005
 40
0.5833333333333333
 40
0.5925925925925926
 40
0.5925925925925926
 40
0.5925925925925926
 40
0.5925925925925926
 10
779.1255628712804
 20
1815.421121023853
 30
0.0
 10
779.1310981579759
 20
1815.419615469975
 30
0.0
 10
779.2256577848895
 20
1815.393800288955
 30
0.0
 10
779.3202173109995
 20
1815.366344676329
 30
0.0
 10
779.4090828677605
 20
1815.339123929808
 30
0.0
  0
SPLINE
  5
207
330
166
100
AcDbEntity
  8
P-SANR-FIXT
100
AcDbSpline
210
0.0
220
0.0
230
1.0
 70
     8
 71
     3
 72
     8
 73
     4
 74
     0
 42
0.000000001
 43
0.0000000001
 40
0.6240658525099024
 40
0.6240658525099024
 40
0.6240658525099024
 40
0.6240658525099024
 40
0.6296296296296296
 40
0.6296296296296296
 40
0.6296296296296296
 40
0.6296296296296296
 10
780.3035242402274
 20
1815.017152483698
 30
0.0
 10
780.3551733325161
 20
1814.995741525902
 30
0.0
 10
780.4065861201161
 20
1814.973932683886
 30
0.0
 10
780.4577374194985
 20
1814.951737668688
 30
0.0
  0
SPLINE
  5
208
330
166
100
AcDbEntity
  8
P-SANR-FIXT
100
AcDbSpline
210
0.0
220
0.0
230
1.0
 70
     8
 71
     3
 72
     8
 73
     4
 74
     0
 42
0.000000001
 43
0.0000000001
 40
0.6658473581057617
 40
0.6658473581057617
 40
0.6658473581057617
 40
0.6658473581057617
 40
0.6666666666666666
 40
0.6666666666666666
 40
0.6666666666666666
 40
0.6666666666666666
 10
781.4175515747058
 20
1814.472174566983
 30
0.0
 10
781.4244822406197
 20
1814.468214358984
 30
0.0
 10
781.4314063512467
 20
1814.464245276392
 30
0.0
 10
781.4383240536252
 20
1814.460267261547
 30
0.0
  0
SPLINE
  5
209
330
166
100
AcDbEntity
  8
P-SANR-FIXT
100
AcDbSpline
210
0.0
220
0.0
230
1.0
 70
     8
 71
     3
 72
     8
 73
     4
 74
     0
 42
0.000000001
 43
0.0000000001
 40
0.7037037037037035
 40
0.7037037037037035
 40
0.7037037037037035
 40
0.7037037037037035
 40
0.7082274468068866
 40
0.7082274468068866
 40
0.7082274468068866
 40
0.7082274468068866
 10
782.347208102558
 20
1813.860867567363
 30
0.0
 10
782.383083461676
 20
1813.833984978775
 30
0.0
 10
782.4188328765148
 20
1813.806856652804
 30
0.0
 10
782.4544086431856
 20
1813.779483144607
 30
0.0
  0
SPLINE
  5
20A
330
166
100
AcDbEntity
  8
P-SANR-FIXT
100
AcDbSpline
210
0.0
220
0.0
230
1.0
 70
     8
 71
     3
 72
     8
 73
     4
 74
     0
 42
0.000000001
 43
0.0000000001
 40
0.7407407407407405
 40
0.7407407407407405
 40
0.7407407407407405
 40
0.7407407407407405
 40
0.7495832607951038
 40
0.7495832607951038
 40
0.7495832607951038
 40
0.7495832607951038
 10
783.1865349479535
 20
1813.15486760884
 30
0.0
 10
783.2496554010252
 20
1813.095385030066
 30
0.0
 10
783.3114916084903
 20
1813.034910611928
 30
0.0
 10
783.3722579239798
 20
1812.973533455252
 30
0.0
  0
SPLINE
  5
20B
330
166
100
AcDbEntity
  8
P-SANR-FIXT
100
AcDbSpline
210
0.0
220
0.0
230
1.0
 70
     8
 71
     3
 72
     9
 73
     5
 74
     0
 42
0.000000001
 43
0.0000000001
 40
0.7777777777777775
 40
0.7777777777777775
 40
0.7777777777777775
 40
0.7777777777777775
 40
0.7916666666666668
 40
0.8518518518518513
 40
0.8518518518518513
 40
0.8518518518518513
 40
0.8518518518518513
 10
783.9335086589942
 20
1812.364738434409
 30
0.0
 10
784.0211878791836
 20
1812.260468044929
 30
0.0
 10
784.4729952971671
 20
1811.691340182099
 30
0.0
 10
784.9147990660939
 20
1811.077599309775
 30
0.0
 10
785.1609645832224
 20
1810.535648626776
 30
0.0
  0
SPLINE
  5
20C
330
166
100
AcDbEntity
  8
P-SANR-FIXT
100
AcDbSpline
210
0.0
220
0.0
230
1.0
 70
     8
 71
     3
 72
     8
 73
     4
 74
     0
 42
0.000000001
 43
0.0000000001
 40
0.8757314509554761
 40
0.8757314509554761
 40
0.8757314509554761
 40
0.8757314509554761
 40
0.8888888888888883
 40
0.8888888888888883
 40
0.8888888888888883
 40
0.8888888888888883
 10
785.4413662071305
 20
1809.886159714988
 30
0.0
 10
785.4910193599004
 20
1809.766319601273
 30
0.0
 10
785.5335779687148
 20
1809.643924387286
 30
0.0
 10
785.5704862165063
 20
1809.519495215914
 30
0.0
  0
SPLINE
  5
20D
330
166
100
AcDbEntity
  8
P-SANR-FIXT
100
AcDbSpline
210
0.0
220
0.0
230
1.0
 70
     8
 71
     3
 72
     8
 73
     4
 74
     0
 42
0.000000001
 43
0.0000000001
 40
0.9179169856268133
 40
0.9179169856268133
 40
0.9179169856268133
 40
0.9179169856268133
 40
0.9259259259259254
 40
0.9259259259259254
 40
0.9259259259259254
 40
0.9259259259259254
 10
785.8392859412783
 20
1808.705889377135
 30
0.0
 10
785.8594612973452
 20
1808.629432508153
 30
0.0
 10
785.8770290672895
 20
1808.552002326581
 30
0.0
 10
785.8924801709297
 20
1808.473782291035
 30
0.0
  0
SPLINE
  5
20E
330
166
100
AcDbEntity
  8
P-SANR-FIXT
100
AcDbSpline
210
0.0
220
0.0
230
1.0
 70
     8
 71
     3
 72
     8
 73
     4
 74
     0
 42
0.000000001
 43
0.0000000001
 40
0.9595589625567557
 40
0.9595589625567557
 40
0.9595589625567557
 40
0.9595589625567557
 40
0.9629629629629622
 40
0.9629629629629622
 40
0.9629629629629622
 40
0.9629629629629622
 10
786.0779972519765
 20
1807.48548599129
 30
0.0
 10
786.0824459212831
 20
1807.451466150643
 30
0.0
 10
786.0864256708563
 20
1807.417265018949
 30
0.0
 10
786.0900130785177
 20
1807.382912217056
 30
0.0
  0
LINE
  5
20F
330
166
100
AcDbEntity
  8
P-SANR-FIXT
100
AcDbLine
 10
795.6664074431877
 20
1806.245878730052
 30
0.0
 11
795.6664074431877
 21
1801.357547403871
 31
0.0
  0
LINE
  5
210
330
166
100
AcDbEntity
  8
P-SANR-FIXT
100
AcDbLine
 10
795.6664074431877
 20
1801.357547403871
 30
0.0
 11
814.5117069048085
 21
1801.357547403871
 31
0.0
  0
LINE
  5
211
330
166
100
AcDbEntity
  8
P-SANR-FIXT
100
AcDbLine
 10
795.6664074431877
 20
1786.134210056233
 30
0.0
 11
795.6664074431877
 21
1781.245878730052
 31
0.0
  0
LINE
  5
212
330
166
100
AcDbEntity
  8
P-SANR-FIXT
100
AcDbLine
 10
795.6664074431877
 20
1781.245878730052
 30
0.0
 11
814.5117069048085
 21
1781.245878730052
 31
0.0
  0
LINE
  5
213
330
166
100
AcDbEntity
  8
P-SANR-FIXT
100
AcDbLine
 10
814.5117069048085
 20
1786.134210056233
 30
0.0
 11
795.6664074431877
 21
1786.134210056233
 31
0.0
  0
LINE
  5
214
330
166
100
AcDbEntity
  8
P-SANR-FIXT
100
AcDbLine
 10
814.5117069048085
 20
1811.134210056233
 30
0.0
 11
795.6664074431877
 21
1811.134210056233
 31
0.0
  0
LINE
  5
215
330
166
100
AcDbEntity
  8
P-SANR-FIXT
100
AcDbLine
 10
795.6664074431877
 20
1811.134210056233
 30
0.0
 11
795.6664074431877
 21
1806.245878730053
 31
0.0
  0
LINE
  5
216
330
166
100
AcDbEntity
  8
P-SANR-FIXT
100
AcDbLine
 10
795.6664074431877
 20
1831.245878730052
 30
0.0
 11
795.6664074431877
 21
1826.357547403871
 31
0.0
  0
LINE
  5
217
330
166
100
AcDbEntity
  8
P-SANR-FIXT
100
AcDbLine
 10
795.6664074431877
 20
1826.357547403871
 30
0.0
 11
814.5117069048085
 21
1826.357547403871
 31
0.0
  0
LINE
  5
218
330
166
100
AcDbEntity
  8
P-SANR-FIXT
100
AcDbLine
 10
814.5117069048085
 20
1831.245878730052
 30
0.0
 11
795.6664074431877
 21
1831.245878730052
 31
0.0
  0
LINE
  5
219
330
166
100
AcDbEntity
  8
P-SANR-FIXT
100
AcDbLine
 10
814.5117069048085
 20
1801.357547403871
 30
0.0
 11
814.5117069048085
 21
1806.245878730052
 31
0.0
  0
SPLINE
  5
21A
330
166
100
AcDbEntity
  8
P-SANR-FIXT
100
AcDbSpline
210
0.0
220
0.0
230
1.0
 70
     8
 71
     3
 72
     9
 73
     5
 74
     0
 42
0.000000001
 43
0.0000000001
 40
-1.0
 40
-1.0
 40
-1.0
 40
-1.0
 40
-0.5
 40
0.0
 40
0.0
 40
0.0
 40
0.0
 10
814.5117069048085
 20
1801.357547403871
 30
0.0
 10
815.089028997157
 20
1798.855254367889
 30
0.0
 10
815.6663510895057
 20
1793.815738440635
 30
0.0
 10
815.089028997157
 20
1788.706362802797
 30
0.0
 10
814.5117069048085
 20
1786.134210056233
 30
0.0
  0
LINE
  5
21B
330
166
100
AcDbEntity
  8
P-SANR-FIXT
100
AcDbLine
 10
814.5117069048085
 20
1781.245878730052
 30
0.0
 11
814.5117069048085
 21
1786.134210056233
 31
0.0
  0
SPLINE
  5
21C
330
166
100
AcDbEntity
  8
P-SANR-FIXT
100
AcDbSpline
210
0.0
220
0.0
230
1.0
 70
    24
 71
     3
 72
     9
 73
     5
 74
     0
 42
0.000000001
 43
0.0000000001
 40
-1.0
 40
-1.0
 40
-1.0
 40
-1.0
 40
-0.5
 40
-0.4964210431371598
 40
-0.4964210431371598
 40
-0.4964210431371598
 40
-0.4964210431371598
 10
814.5117069048085
 20
1781.245878730052
 30
0.0
 10
815.089028997157
 20
1781.245878730052
 30
0.0
 10
815.3797562541958
 20
1781.245878730052
 30
0.0
 10
815.3776752535723
 20
1781.245878730052
 30
0.0
 10
815.3776456740541
 20
1781.245878730052
 30
0.0
  0
SPLINE
  5
21D
330
166
100
AcDbEntity
  8
P-SANR-FIXT
100
AcDbSpline
210
0.0
220
0.0
230
1.0
 70
    24
 71
     3
 72
     8
 73
     4
 74
     0
 42
0.000000001
 43
0.0000000001
 40
-0.5
 40
-0.5
 40
-0.5
 40
-0.5
 40
0.0
 40
0.0
 40
0.0
 40
0.0
 10
815.3776900433314
 20
1831.245878730052
 30
0.0
 10
815.3776900433314
 20
1831.245878730052
 30
0.0
 10
815.089028997157
 20
1831.245878730052
 30
0.0
 10
814.5117069048085
 20
1831.245878730052
 30
0.0
  0
LINE
  5
21E
330
166
100
AcDbEntity
  8
P-SANR-FIXT
100
AcDbLine
 10
814.5117069048085
 20
1826.357547403871
 30
0.0
 11
814.5117069048085
 21
1831.245878730052
 31
0.0
  0
SPLINE
  5
21F
330
166
100
AcDbEntity
  8
P-SANR-FIXT
100
AcDbSpline
210
0.0
220
0.0
230
1.0
 70
     8
 71
     3
 72
     9
 73
     5
 74
     0
 42
0.000000001
 43
0.0000000001
 40
-1.0
 40
-1.0
 40
-1.0
 40
-1.0
 40
-0.5
 40
0.0
 40
0.0
 40
0.0
 40
0.0
 10
814.5117069048085
 20
1826.357547403871
 30
0.0
 10
815.089028997157
 20
1823.855254367889
 30
0.0
 10
815.6663510895057
 20
1818.815738440635
 30
0.0
 10
815.089028997157
 20
1813.706362802797
 30
0.0
 10
814.5117069048085
 20
1811.134210056233
 30
0.0
  0
LINE
  5
220
330
166
100
AcDbEntity
  8
P-SANR-FIXT
100
AcDbLine
 10
814.5117069048085
 20
1806.245878730052
 30
0.0
 11
814.5117069048085
 21
1811.134210056233
 31
0.0
  0
SPLINE
  5
221
330
166
100
AcDbEntity
  8
P-SANR-FIXT
100
AcDbSpline
210
0.0
220
0.0
230
1.0
 70
     8
 71
     3
 72
     8
 73
     4
 74
     0
 42
0.000000001
 43
0.0000000001
 40
-0.5
 40
-0.5
 40
-0.5
 40
-0.5
 40
0.0
 40
0.0
 40
0.0
 40
0.0
 10
755.7167457461704
 20
1789.379459146736
 30
0.0
 10
755.7514886800951
 20
1789.052623990357
 30
0.0
 10
755.8041709648895
 20
1788.729846038208
 30
0.0
 10
755.8746324476731
 20
1788.412604481995
 30
0.0
  0
SPLINE
  5
222
330
166
100
AcDbEntity
  8
P-SANR-FIXT
100
AcDbSpline
210
0.0
220
0.0
230
1.0
 70
     8
 71
     3
 72
     9
 73
     5
 74
     0
 42
0.000000001
 43
0.0000000001
 40
0.0
 40
0.0
 40
0.0
 40
0.0
 40
0.5
 40
1.0
 40
1.0
 40
1.0
 40
1.0
 10
754.4614735153264
 20
1790.501427618582
 30
0.0
 10
754.6627615360201
 20
1790.480329789103
 30
0.0
 10
755.064871878024
 20
1790.437417398617
 30
0.0
 10
755.4660508212612
 20
1790.393153895623
 30
0.0
 10
755.6664074431878
 20
1790.370706035642
 30
0.0
  0
SPLINE
  5
223
330
166
100
AcDbEntity
  8
P-SANR-FIXT
100
AcDbSpline
210
0.0
220
0.0
230
1.0
 70
     8
 71
     3
 72
     8
 73
     4
 74
     0
 42
0.000000001
 43
0.0000000001
 40
0.0
 40
0.0
 40
0.0
 40
0.0
 40
0.1666666666666666
 40
0.1666666666666666
 40
0.1666666666666666
 40
0.1666666666666666
 10
759.865882172821
 20
1784.497803882456
 30
0.0
 10
761.9830139620087
 20
1784.355714171852
 30
0.0
 10
763.9742904063538
 20
1784.247509025625
 30
0.0
 10
765.8369614808968
 20
1784.245909118271
 30
0.0
  0
SPLINE
  5
224
330
166
100
AcDbEntity
  8
P-SANR-FIXT
100
AcDbSpline
210
0.0
220
0.0
230
1.0
 70
     8
 71
     3
 72
     9
 73
     5
 74
     0
 42
0.000000001
 43
0.0000000001
 40
0.0
 40
0.0
 40
0.0
 40
0.0
 40
0.5
 40
1.0
 40
1.0
 40
1.0
 40
1.0
 10
755.6664074431879
 20
1822.121051424462
 30
0.0
 10
755.4660508212609
 20
1822.098603564482
 30
0.0
 10
755.064871878024
 20
1822.054340061487
 30
0.0
 10
754.6627615360201
 20
1822.011427671002
 30
0.0
 10
754.4614735153264
 20
1821.990329841523
 30
0.0
  0
SPLINE
  5
225
330
166
100
AcDbEntity
  8
P-SANR-FIXT
100
AcDbSpline
210
0.0
220
0.0
230
1.0
 70
     8
 71
     3
 72
     9
 73
     5
 74
     0
 42
0.000000001
 43
0.0000000001
 40
-1.0
 40
-1.0
 40
-1.0
 40
-1.0
 40
-0.5
 40
0.0
 40
0.0
 40
0.0
 40
0.0
 10
755.8746324476731
 20
1824.079152978109
 30
0.0
 10
755.8041709648895
 20
1823.761911421897
 30
0.0
 10
755.6988063953008
 20
1823.116355517599
 30
0.0
 10
755.6651992291905
 20
1822.454570796379
 30
0.0
 10
755.6664074431879
 20
1822.121051424462
 30
0.0
  0
SPLINE
  5
226
330
166
100
AcDbEntity
  8
P-SANR-FIXT
100
AcDbSpline
210
0.0
220
0.0
230
1.0
 70
     8
 71
     3
 72
     8
 73
     4
 74
     0
 42
0.000000001
 43
0.0000000001
 40
0.8333333333333332
 40
0.8333333333333332
 40
0.8333333333333332
 40
0.8333333333333332
 40
1.0
 40
1.0
 40
1.0
 40
1.0
 10
765.8369614808966
 20
1828.245848341833
 30
0.0
 10
763.9742904063536
 20
1828.24424843448
 30
0.0
 10
761.9830139620086
 20
1828.136043288253
 30
0.0
 10
759.865882172821
 20
1827.993953577648
 30
0.0
  0
ARC
  5
227
330
166
100
AcDbEntity
  8
P-SANR-FIXT
100
AcDbCircle
 10
776.6664074431878
 20
1806.245878730052
 30
0.0
 40
9.5
100
AcDbArc
 50
180.0
 51
0.0
  0
ARC
  5
228
330
166
100
AcDbEntity
  8
P-SANR-FIXT
100
AcDbCircle
 10
776.6664074431878
 20
1806.245878730052
 30
0.0
 40
9.5
100
AcDbArc
 50
0.0000000000027426
 51
180.0
  0
ARC
  5
229
330
166
100
AcDbEntity
  8
P-SANR-FIXT
100
AcDbCircle
 10
716.6664074431878
 20
1806.245878730052
 30
0.0
 40
9.5
100
AcDbArc
 50
180.0
 51
0.0
  0
ARC
  5
22A
330
166
100
AcDbEntity
  8
P-SANR-FIXT
100
AcDbCircle
 10
716.6664074431878
 20
1806.245878730052
 30
0.0
 40
9.5
100
AcDbArc
 50
0.0000000000027426
 51
180.0
  0
ARC
  5
22B
330
166
100
AcDbEntity
  8
P-SANR-FIXT
100
AcDbCircle
 10
776.6664074431878
 20
1806.245878730052
 30
0.0
 40
9.000000000000365
100
AcDbArc
 50
352.5000000000112
 51
352.9161788484085
  0
ARC
  5
22C
330
166
100
AcDbEntity
  8
P-SANR-FIXT
100
AcDbCircle
 10
776.6664074431878
 20
1806.245878730052
 30
0.0
 40
9.000000000000321
100
AcDbArc
 50
345.0000000000193
 51
346.0011654348942
  0
ARC
  5
22D
330
166
100
AcDbEntity
  8
P-SANR-FIXT
100
AcDbCircle
 10
776.6664074431878
 20
1806.245878730052
 30
0.0
 40
9.000000000000323
100
AcDbArc
 50
337.5000000000292
 51
339.2541034359175
  0
ARC
  5
22E
330
166
100
AcDbEntity
  8
P-SANR-FIXT
100
AcDbCircle
 10
776.6664074431878
 20
1806.245878730052
 30
0.0
 40
9.000000000000268
100
AcDbArc
 50
320.3550820924995
 51
322.5000000000483
  0
ARC
  5
22F
330
166
100
AcDbEntity
  8
P-SANR-FIXT
100
AcDbCircle
 10
776.6664074431878
 20
1806.245878730052
 30
0.0
 40
9.000000000000314
100
AcDbArc
 50
313.6823170857169
 51
315.0000000000572
  0
ARC
  5
230
330
166
100
AcDbEntity
  8
P-SANR-FIXT
100
AcDbCircle
 10
776.6664074431878
 20
1806.245878730052
 30
0.0
 40
9.000000000000287
100
AcDbArc
 50
306.8245351280544
 51
307.5000000000673
  0
ARC
  5
231
330
166
100
AcDbEntity
  8
P-SANR-FIXT
100
AcDbCircle
 10
776.6664074431878
 20
1806.245878730052
 30
0.0
 40
9.000000000000353
100
AcDbArc
 50
292.5000000000778
 51
293.181663489903
  0
ARC
  5
232
330
166
100
AcDbEntity
  8
P-SANR-FIXT
100
AcDbCircle
 10
776.6664074431878
 20
1806.245878730052
 30
0.0
 40
9.000000000000341
100
AcDbArc
 50
285.0000000000786
 51
286.3740753085824
  0
ARC
  5
233
330
166
100
AcDbEntity
  8
P-SANR-FIXT
100
AcDbCircle
 10
776.6664074431878
 20
1806.245878730052
 30
0.0
 40
9.000000000000376
100
AcDbArc
 50
277.5000000000798
 51
279.5592212383735
  0
ARC
  5
234
330
166
100
AcDbEntity
  8
P-SANR-FIXT
100
AcDbCircle
 10
776.6664074431878
 20
1806.245878730052
 30
0.0
 40
9.00000000000046
100
AcDbArc
 50
260.5560081308693
 51
262.5000000000808
  0
ARC
  5
235
330
166
100
AcDbEntity
  8
P-SANR-FIXT
100
AcDbCircle
 10
776.6664074431878
 20
1806.245878730052
 30
0.0
 40
9.000000000000412
100
AcDbArc
 50
253.8250687660341
 51
255.0000000000822
  0
ARC
  5
236
330
166
100
AcDbEntity
  8
P-SANR-FIXT
100
AcDbCircle
 10
776.6664074431878
 20
1806.245878730052
 30
0.0
 40
9.000000000000357
100
AcDbArc
 50
247.0702621793603
 51
247.5000000000831
  0
ARC
  5
237
330
166
100
AcDbEntity
  8
P-SANR-FIXT
100
AcDbCircle
 10
776.6664074431878
 20
1806.245878730052
 30
0.0
 40
9.000000000000373
100
AcDbArc
 50
240.0000000000832
 51
240.2745373860168
  0
ARC
  5
238
330
166
100
AcDbEntity
  8
P-SANR-FIXT
100
AcDbCircle
 10
776.6664074431878
 20
1806.245878730052
 30
0.0
 40
9.000000000000639
100
AcDbArc
 50
232.5000000000727
 51
233.4123099427174
  0
ARC
  5
239
330
166
100
AcDbEntity
  8
P-SANR-FIXT
100
AcDbCircle
 10
776.6664074431878
 20
1806.245878730052
 30
0.0
 40
9.000000000000664
100
AcDbArc
 50
225.0000000000626
 51
226.5071358431845
  0
ARC
  5
23A
330
166
100
AcDbEntity
  8
P-SANR-FIXT
100
AcDbCircle
 10
776.6664074431878
 20
1806.245878730052
 30
0.0
 40
9.000000000000694
100
AcDbArc
 50
217.5000000000506
 51
219.7623156285922
  0
ARC
  5
23B
330
166
100
AcDbEntity
  8
P-SANR-FIXT
100
AcDbCircle
 10
776.6664074431878
 20
1806.245878730052
 30
0.0
 40
9.000000000000705
100
AcDbArc
 50
200.7060447906723
 51
202.5000000000302
  0
ARC
  5
23C
330
166
100
AcDbEntity
  8
P-SANR-FIXT
100
AcDbCircle
 10
776.6664074431878
 20
1806.245878730052
 30
0.0
 40
9.000000000000659
100
AcDbArc
 50
193.9456142934281
 51
195.0000000000197
  0
ARC
  5
23D
330
166
100
AcDbEntity
  8
P-SANR-FIXT
100
AcDbCircle
 10
776.6664074431878
 20
1806.245878730052
 30
0.0
 40
9.000000000000639
100
AcDbArc
 50
187.0437015966034
 51
187.5000000000093
  0
ARC
  5
23E
330
166
100
AcDbEntity
  8
P-SANR-FIXT
100
AcDbCircle
 10
776.6664074431878
 20
1806.245878730052
 30
0.0
 40
9.000000000000802
100
AcDbArc
 50
172.5000000000108
 51
172.9506386771214
  0
ARC
  5
23F
330
166
100
AcDbEntity
  8
P-SANR-FIXT
100
AcDbCircle
 10
776.6664074431878
 20
1806.245878730052
 30
0.0
 40
9.000000000000952
100
AcDbArc
 50
165.0000000000231
 51
166.0468773716859
  0
ARC
  5
240
330
166
100
AcDbEntity
  8
P-SANR-FIXT
100
AcDbCircle
 10
776.6664074431878
 20
1806.245878730052
 30
0.0
 40
9.000000000000905
100
AcDbArc
 50
157.5000000000336
 51
159.2883328281461
  0
ARC
  5
241
330
166
100
AcDbEntity
  8
P-SANR-FIXT
100
AcDbCircle
 10
776.6664074431878
 20
1806.245878730052
 30
0.0
 40
9.000000000000843
100
AcDbArc
 50
140.5804674936356
 51
142.5000000000578
  0
ARC
  5
242
330
166
100
AcDbEntity
  8
P-SANR-FIXT
100
AcDbCircle
 10
776.6664074431878
 20
1806.245878730052
 30
0.0
 40
9.000000000000875
100
AcDbArc
 50
134.0434385808232
 51
135.0000000000691
  0
ARC
  5
243
330
166
100
AcDbEntity
  8
P-SANR-FIXT
100
AcDbCircle
 10
776.6664074431878
 20
1806.245878730052
 30
0.0
 40
9.000000000000943
100
AcDbArc
 50
127.2760310931246
 51
127.5000000000804
  0
ARC
  5
244
330
166
100
AcDbEntity
  8
P-SANR-FIXT
100
AcDbCircle
 10
776.6664074431878
 20
1806.245878730052
 30
0.0
 40
9.000000000000913
100
AcDbArc
 50
120.0000000000917
 51
120.4983086117715
  0
ARC
  5
245
330
166
100
AcDbEntity
  8
P-SANR-FIXT
100
AcDbCircle
 10
776.6664074431878
 20
1806.245878730052
 30
0.0
 40
9.000000000000762
100
AcDbArc
 50
112.5000000000911
 51
113.6628692568766
  0
ARC
  5
246
330
166
100
AcDbEntity
  8
P-SANR-FIXT
100
AcDbCircle
 10
776.6664074431878
 20
1806.245878730052
 30
0.0
 40
9.000000000000724
100
AcDbArc
 50
105.00000000009
 51
106.7549226758899
  0
ARC
  5
247
330
166
100
AcDbEntity
  8
P-SANR-FIXT
100
AcDbCircle
 10
776.6664074431878
 20
1806.245878730052
 30
0.0
 40
9.000000000000881
100
AcDbArc
 50
97.50000000008846
 51
99.77980421458557
  0
ARC
  5
248
330
166
100
AcDbEntity
  8
P-SANR-FIXT
100
AcDbCircle
 10
776.6664074431878
 20
1806.245878730052
 30
0.0
 40
9.000000000000792
100
AcDbArc
 50
80.5063859139495
 51
82.50000000008723
  0
ARC
  5
249
330
166
100
AcDbEntity
  8
P-SANR-FIXT
100
AcDbCircle
 10
776.6664074431878
 20
1806.245878730052
 30
0.0
 40
9.000000000000815
100
AcDbArc
 50
73.73929340883823
 51
75.00000000008705
  0
ARC
  5
24A
330
166
100
AcDbEntity
  8
P-SANR-FIXT
100
AcDbCircle
 10
776.6664074431878
 20
1806.245878730052
 30
0.0
 40
9.000000000000733
100
AcDbArc
 50
66.9617273283236
 51
67.50000000008565
  0
ARC
  5
24B
330
166
100
AcDbEntity
  8
P-SANR-FIXT
100
AcDbCircle
 10
776.6664074431878
 20
1806.245878730052
 30
0.0
 40
9.000000000000806
100
AcDbArc
 50
60.000000000085
 51
60.16539396895907
  0
ARC
  5
24C
330
166
100
AcDbEntity
  8
P-SANR-FIXT
100
AcDbCircle
 10
776.6664074431878
 20
1806.245878730052
 30
0.0
 40
9.00000000000057
100
AcDbArc
 50
52.50000000007578
 51
53.31023242255765
  0
ARC
  5
24D
330
166
100
AcDbEntity
  8
P-SANR-FIXT
100
AcDbCircle
 10
776.6664074431878
 20
1806.245878730052
 30
0.0
 40
9.00000000000049
100
AcDbArc
 50
45.00000000006319
 51
46.42548229848322
  0
ARC
  5
24E
330
166
100
AcDbEntity
  8
P-SANR-FIXT
100
AcDbCircle
 10
776.6664074431878
 20
1806.245878730052
 30
0.0
 40
9.000000000000518
100
AcDbArc
 50
37.50000000005343
 51
39.71178824776175
  0
ARC
  5
24F
330
166
100
AcDbEntity
  8
P-SANR-FIXT
100
AcDbCircle
 10
776.6664074431878
 20
1806.245878730052
 30
0.0
 40
9.000000000000538
100
AcDbArc
 50
20.74589656408405
 51
22.50000000003332
  0
ARC
  5
250
330
166
100
AcDbEntity
  8
P-SANR-FIXT
100
AcDbCircle
 10
776.6664074431878
 20
1806.245878730052
 30
0.0
 40
9.000000000000607
100
AcDbArc
 50
13.99883456510713
 51
15.00000000002252
  0
ARC
  5
251
330
166
100
AcDbEntity
  8
P-SANR-FIXT
100
AcDbCircle
 10
776.6664074431878
 20
1806.245878730052
 30
0.0
 40
9.000000000000555
100
AcDbArc
 50
7.083821151591012
 51
7.500000000013141
  0
ARC
  5
252
330
166
100
AcDbEntity
  8
P-SANR-FIXT
100
AcDbCircle
 10
716.6664074431878
 20
1806.245878730052
 30
0.0
 40
9.000000000000492
100
AcDbArc
 50
352.5000000000085
 51
352.9161788484073
  0
ARC
  5
253
330
166
100
AcDbEntity
  8
P-SANR-FIXT
100
AcDbCircle
 10
716.6664074431878
 20
1806.245878730052
 30
0.0
 40
9.000000000000405
100
AcDbArc
 50
345.0000000000192
 51
346.0011654348898
  0
ARC
  5
254
330
166
100
AcDbEntity
  8
P-SANR-FIXT
100
AcDbCircle
 10
716.6664074431878
 20
1806.245878730052
 30
0.0
 40
9.000000000000353
100
AcDbArc
 50
337.5000000000293
 51
339.254103435914
  0
ARC
  5
255
330
166
100
AcDbEntity
  8
P-SANR-FIXT
100
AcDbCircle
 10
716.6664074431878
 20
1806.245878730052
 30
0.0
 40
9.000000000000357
100
AcDbArc
 50
320.3550820925017
 51
322.5000000000485
  0
ARC
  5
256
330
166
100
AcDbEntity
  8
P-SANR-FIXT
100
AcDbCircle
 10
716.6664074431878
 20
1806.245878730052
 30
0.0
 40
9.000000000000394
100
AcDbArc
 50
313.6823170857166
 51
315.0000000000575
  0
ARC
  5
257
330
166
100
AcDbEntity
  8
P-SANR-FIXT
100
AcDbCircle
 10
716.6664074431878
 20
1806.245878730052
 30
0.0
 40
9.000000000000376
100
AcDbArc
 50
306.8245351280558
 51
307.5000000000667
  0
ARC
  5
258
330
166
100
AcDbEntity
  8
P-SANR-FIXT
100
AcDbCircle
 10
716.6664074431878
 20
1806.245878730052
 30
0.0
 40
9.000000000000577
100
AcDbArc
 50
292.500000000077
 51
293.1816634899009
  0
ARC
  5
259
330
166
100
AcDbEntity
  8
P-SANR-FIXT
100
AcDbCircle
 10
716.6664074431878
 20
1806.245878730052
 30
0.0
 40
9.000000000000493
100
AcDbArc
 50
285.0000000000778
 51
286.3740753085807
  0
ARC
  5
25A
330
166
100
AcDbEntity
  8
P-SANR-FIXT
100
AcDbCircle
 10
716.6664074431878
 20
1806.245878730052
 30
0.0
 40
9.000000000000545
100
AcDbArc
 50
277.5000000000798
 51
279.5592212383711
  0
ARC
  5
25B
330
166
100
AcDbEntity
  8
P-SANR-FIXT
100
AcDbCircle
 10
716.6664074431878
 20
1806.245878730052
 30
0.0
 40
9.000000000000444
100
AcDbArc
 50
260.5560081308683
 51
262.5000000000814
  0
ARC
  5
25C
330
166
100
AcDbEntity
  8
P-SANR-FIXT
100
AcDbCircle
 10
716.6664074431878
 20
1806.245878730052
 30
0.0
 40
9.000000000000442
100
AcDbArc
 50
253.8250687660334
 51
255.0000000000816
  0
ARC
  5
25D
330
166
100
AcDbEntity
  8
P-SANR-FIXT
100
AcDbCircle
 10
716.6664074431878
 20
1806.245878730052
 30
0.0
 40
9.000000000000401
100
AcDbArc
 50
247.0702621793604
 51
247.5000000000826
  0
ARC
  5
25E
330
166
100
AcDbEntity
  8
P-SANR-FIXT
100
AcDbCircle
 10
716.6664074431878
 20
1806.245878730052
 30
0.0
 40
9.000000000000584
100
AcDbArc
 50
240.0000000000833
 51
240.2745373860164
  0
ARC
  5
25F
330
166
100
AcDbEntity
  8
P-SANR-FIXT
100
AcDbCircle
 10
716.6664074431878
 20
1806.245878730052
 30
0.0
 40
9.000000000000778
100
AcDbArc
 50
232.500000000072
 51
233.4123099427193
  0
ARC
  5
260
330
166
100
AcDbEntity
  8
P-SANR-FIXT
100
AcDbCircle
 10
716.6664074431878
 20
1806.245878730052
 30
0.0
 40
9.000000000000756
100
AcDbArc
 50
225.0000000000608
 51
226.5071358431878
  0
ARC
  5
261
330
166
100
AcDbEntity
  8
P-SANR-FIXT
100
AcDbCircle
 10
716.6664074431878
 20
1806.245878730052
 30
0.0
 40
9.00000000000084
100
AcDbArc
 50
217.5000000000517
 51
219.7623156285926
  0
ARC
  5
262
330
166
100
AcDbEntity
  8
P-SANR-FIXT
100
AcDbCircle
 10
716.6664074431878
 20
1806.245878730052
 30
0.0
 40
9.00000000000081
100
AcDbArc
 50
200.7060447906694
 51
202.5000000000302
  0
ARC
  5
263
330
166
100
AcDbEntity
  8
P-SANR-FIXT
100
AcDbCircle
 10
716.6664074431878
 20
1806.245878730052
 30
0.0
 40
9.000000000000879
100
AcDbArc
 50
193.9456142934267
 51
195.0000000000197
  0
ARC
  5
264
330
166
100
AcDbEntity
  8
P-SANR-FIXT
100
AcDbCircle
 10
716.6664074431878
 20
1806.245878730052
 30
0.0
 40
9.000000000000849
100
AcDbArc
 50
187.0437015966034
 51
187.5000000000093
  0
ARC
  5
265
330
166
100
AcDbEntity
  8
P-SANR-FIXT
100
AcDbCircle
 10
716.6664074431878
 20
1806.245878730052
 30
0.0
 40
9.000000000001001
100
AcDbArc
 50
172.5000000000107
 51
172.9506386771242
  0
ARC
  5
266
330
166
100
AcDbEntity
  8
P-SANR-FIXT
100
AcDbCircle
 10
716.6664074431878
 20
1806.245878730052
 30
0.0
 40
9.00000000000098
100
AcDbArc
 50
165.0000000000221
 51
166.0468773716877
  0
ARC
  5
267
330
166
100
AcDbEntity
  8
P-SANR-FIXT
100
AcDbCircle
 10
716.6664074431878
 20
1806.245878730052
 30
0.0
 40
9.000000000001024
100
AcDbArc
 50
157.5000000000343
 51
159.288332828151
  0
ARC
  5
268
330
166
100
AcDbEntity
  8
P-SANR-FIXT
100
AcDbCircle
 10
716.6664074431878
 20
1806.245878730052
 30
0.0
 40
9.000000000001003
100
AcDbArc
 50
140.580467493634
 51
142.5000000000577
  0
ARC
  5
269
330
166
100
AcDbEntity
  8
P-SANR-FIXT
100
AcDbCircle
 10
716.6664074431878
 20
1806.245878730052
 30
0.0
 40
9.000000000000957
100
AcDbArc
 50
134.0434385808224
 51
135.0000000000683
  0
ARC
  5
26A
330
166
100
AcDbEntity
  8
P-SANR-FIXT
100
AcDbCircle
 10
716.6664074431878
 20
1806.245878730052
 30
0.0
 40
9.000000000001033
100
AcDbArc
 50
127.2760310931251
 51
127.5000000000795
  0
ARC
  5
26B
330
166
100
AcDbEntity
  8
P-SANR-FIXT
100
AcDbCircle
 10
716.6664074431878
 20
1806.245878730052
 30
0.0
 40
9.000000000001108
100
AcDbArc
 50
120.0000000000917
 51
120.4983086117707
  0
ARC
  5
26C
330
166
100
AcDbEntity
  8
P-SANR-FIXT
100
AcDbCircle
 10
716.6664074431878
 20
1806.245878730052
 30
0.0
 40
9.00000000000082
100
AcDbArc
 50
112.5000000000904
 51
113.6628692568758
  0
ARC
  5
26D
330
166
100
AcDbEntity
  8
P-SANR-FIXT
100
AcDbCircle
 10
716.6664074431878
 20
1806.245878730052
 30
0.0
 40
9.000000000000833
100
AcDbArc
 50
105.0000000000894
 51
106.7549226758897
  0
ARC
  5
26E
330
166
100
AcDbEntity
  8
P-SANR-FIXT
100
AcDbCircle
 10
716.6664074431878
 20
1806.245878730052
 30
0.0
 40
9.000000000000992
100
AcDbArc
 50
97.50000000008856
 51
99.77980421458543
  0
ARC
  5
26F
330
166
100
AcDbEntity
  8
P-SANR-FIXT
100
AcDbCircle
 10
716.6664074431878
 20
1806.245878730052
 30
0.0
 40
9.000000000000904
100
AcDbArc
 50
80.50638591395056
 51
82.50000000008734
  0
ARC
  5
270
330
166
100
AcDbEntity
  8
P-SANR-FIXT
100
AcDbCircle
 10
716.6664074431878
 20
1806.245878730052
 30
0.0
 40
9.000000000000843
100
AcDbArc
 50
73.73929340883899
 51
75.0000000000864
  0
ARC
  5
271
330
166
100
AcDbEntity
  8
P-SANR-FIXT
100
AcDbCircle
 10
716.6664074431878
 20
1806.245878730052
 30
0.0
 40
9.000000000000882
100
AcDbArc
 50
66.9617273283265
 51
67.50000000008532
  0
ARC
  5
272
330
166
100
AcDbEntity
  8
P-SANR-FIXT
100
AcDbCircle
 10
716.6664074431878
 20
1806.245878730052
 30
0.0
 40
9.000000000001003
100
AcDbArc
 50
60.00000000008493
 51
60.1653939689596
  0
ARC
  5
273
330
166
100
AcDbEntity
  8
P-SANR-FIXT
100
AcDbCircle
 10
716.6664074431878
 20
1806.245878730052
 30
0.0
 40
9.000000000000728
100
AcDbArc
 50
52.50000000007528
 51
53.31023242255715
  0
ARC
  5
274
330
166
100
AcDbEntity
  8
P-SANR-FIXT
100
AcDbCircle
 10
716.6664074431878
 20
1806.245878730052
 30
0.0
 40
9.00000000000065
100
AcDbArc
 50
45.0000000000637
 51
46.4254822984832
  0
ARC
  5
275
330
166
100
AcDbEntity
  8
P-SANR-FIXT
100
AcDbCircle
 10
716.6664074431878
 20
1806.245878730052
 30
0.0
 40
9.000000000000634
100
AcDbArc
 50
37.50000000005316
 51
39.71178824775832
  0
ARC
  5
276
330
166
100
AcDbEntity
  8
P-SANR-FIXT
100
AcDbCircle
 10
716.6664074431878
 20
1806.245878730052
 30
0.0
 40
9.000000000000687
100
AcDbArc
 50
20.74589656408781
 51
22.50000000003244
  0
ARC
  5
277
330
166
100
AcDbEntity
  8
P-SANR-FIXT
100
AcDbCircle
 10
716.6664074431878
 20
1806.245878730052
 30
0.0
 40
9.000000000000689
100
AcDbArc
 50
13.99883456510973
 51
15.00000000002211
  0
ARC
  5
278
330
166
100
AcDbEntity
  8
P-SANR-FIXT
100
AcDbCircle
 10
716.6664074431878
 20
1806.245878730052
 30
0.0
 40
9.000000000000667
100
AcDbArc
 50
7.083821151593797
 51
7.500000000012952
  0
LINE
  5
279
330
166
100
AcDbEntity
  8
P-SANR-FIXT
100
AcDbLine
 10
790.1664074431878
 20
1784.245878730052
 30
0.0
 11
790.1664074431878
 21
1806.245878730052
 31
0.0
  0
LINE
  5
27A
330
166
100
AcDbEntity
  8
P-SANR-FIXT
100
AcDbLine
 10
790.1664074431878
 20
1806.245878730052
 30
0.0
 11
790.1664074431878
 21
1828.245878730052
 31
0.0
  0
LINE
  5
27B
330
166
100
AcDbEntity
  8
P-SANR-FIXT
100
AcDbLine
 10
794.5117069048085
 20
1781.745878730052
 30
0.0
 11
794.5117069048085
 21
1806.245878730052
 31
0.0
  0
SPLINE
  5
27C
330
166
100
AcDbEntity
  8
P-SANR-FIXT
100
AcDbSpline
210
0.0
220
0.0
230
1.0
 70
    24
 71
     3
 72
     8
 73
     4
 74
     0
 42
0.000000001
 43
0.0000000001
 40
-0.5
 40
-0.5
 40
-0.5
 40
-0.5
 40
0.0
 40
0.0
 40
0.0
 40
0.0
 10
794.8004243046648
 20
1781.245878730052
 30
0.0
 10
794.8004243046648
 20
1781.245878730052
 30
0.0
 10
795.0890853508391
 20
1781.245878730052
 30
0.0
 10
795.6664074431877
 20
1781.245878730052
 30
0.0
  0
SPLINE
  5
27D
330
166
100
AcDbEntity
  8
P-SANR-FIXT
100
AcDbSpline
210
0.0
220
0.0
230
1.0
 70
     8
 71
     3
 72
     9
 73
     5
 74
     0
 42
0.000000001
 43
0.0000000001
 40
-1.0
 40
-1.0
 40
-1.0
 40
-1.0
 40
-0.5
 40
0.0
 40
0.0
 40
0.0
 40
0.0
 10
795.6664074431877
 20
1786.134210056233
 30
0.0
 10
795.0890853508391
 20
1788.636503092214
 30
0.0
 10
794.5117632584905
 20
1793.67601901947
 30
0.0
 10
795.0890853508391
 20
1798.785394657307
 30
0.0
 10
795.6664074431877
 20
1801.357547403871
 30
0.0
  0
LINE
  5
27E
330
166
100
AcDbEntity
  8
P-SANR-FIXT
100
AcDbLine
 10
794.5117069048085
 20
1806.245878730052
 30
0.0
 11
794.5117069048085
 21
1830.745878730052
 31
0.0
  0
SPLINE
  5
27F
330
166
100
AcDbEntity
  8
P-SANR-FIXT
100
AcDbSpline
210
0.0
220
0.0
230
1.0
 70
     8
 71
     3
 72
     9
 73
     5
 74
     0
 42
0.000000001
 43
0.0000000001
 40
-1.0
 40
-1.0
 40
-1.0
 40
-1.0
 40
-0.5
 40
0.0
 40
0.0
 40
0.0
 40
0.0
 10
795.6664074431877
 20
1811.134210056233
 30
0.0
 10
795.0890853508391
 20
1813.636503092214
 30
0.0
 10
794.5117632584905
 20
1818.67601901947
 30
0.0
 10
795.0890853508391
 20
1823.785394657307
 30
0.0
 10
795.6664074431877
 20
1826.357547403871
 30
0.0
  0
SPLINE
  5
280
330
166
100
AcDbEntity
  8
P-SANR-FIXT
100
AcDbSpline
210
0.0
220
0.0
230
1.0
 70
    24
 71
     3
 72
     9
 73
     5
 74
     0
 42
0.000000001
 43
0.0000000001
 40
-1.0
 40
-1.0
 40
-1.0
 40
-1.0
 40
-0.5
 40
-0.4964210431371542
 40
-0.4964210431371542
 40
-0.4964210431371542
 40
-0.4964210431371542
 10
795.6664074431877
 20
1831.245878730052
 30
0.0
 10
795.0890853508391
 20
1831.245878730052
 30
0.0
 10
794.7983580938004
 20
1831.245878730052
 30
0.0
 10
794.8004390944239
 20
1831.245878730052
 30
0.0
 10
794.8004686739421
 20
1831.245878730052
 30
0.0
  0
LWPOLYLINE
  5
281
330
166
100
AcDbEntity
  8
P-SANR-FIXT
100
AcDbPolyline
 90
        3
 70
   128
 43
0.0
 10
759.6660095724805
 20
1784.512294319549
 10
759.7659730709803
 20
1784.504431514391
 10
759.8658821728211
 20
1784.497803882456
  0
SPLINE
  5
282
330
166
100
AcDbEntity
  8
P-SANR-FIXT
100
AcDbSpline
210
0.0
220
0.0
230
1.0
 70
     8
 71
     3
 72
    23
 73
    19
 74
     0
 42
0.000000001
 43
0.0000000001
 40
-1.0
 40
-1.0
 40
-1.0
 40
-1.0
 40
-0.8
 40
-0.7
 40
-0.65
 40
-0.6
 40
-0.575
 40
-0.55
 40
-0.5
 40
-0.45
 40
-0.4
 40
-0.35
 40
-0.3
 40
-0.25
 40
-0.2
 40
-0.15
 40
-0.1
 40
0.0
 40
0.0
 40
0.0
 40
0.0
 10
755.8746324476731
 20
1788.412604481996
 30
0.0
 10
755.9595809557496
 20
1788.026557660378
 30
0.0
 10
756.1319317309482
 20
1787.476575161622
 30
0.0
 10
756.4013166957926
 20
1786.878573867834
 30
0.0
 10
756.5778531639847
 20
1786.551341459299
 30
0.0
 10
756.7005881998136
 20
1786.35481948182
 30
0.0
 10
756.805592088233
 20
1786.201718003779
 30
0.0
 10
756.9136912167474
 20
1786.050250815607
 30
0.0
 10
757.0565327617669
 20
1785.865794109815
 30
0.0
 10
757.2427288931895
 20
1785.654577763306
 30
0.0
 10
757.4474903846734
 20
1785.458254191179
 30
0.0
 10
757.6703162600629
 20
1785.273906738244
 30
0.0
 10
757.9085065473222
 20
1785.100200324544
 30
0.0
 10
758.1631514685547
 20
1784.943273495116
 30
0.0
 10
758.4341888157023
 20
1784.808607968042
 30
0.0
 10
758.7209930075394
 20
1784.698088163209
 30
0.0
 10
759.1226713831034
 20
1784.580019473219
 30
0.0
 10
759.444364510205
 20
1784.528159544362
 30
0.0
 10
759.6660095724805
 20
1784.512294319549
 30
0.0
  0
SPLINE
  5
283
330
166
100
AcDbEntity
  8
P-SANR-FIXT
100
AcDbSpline
210
0.0
220
0.0
230
1.0
 70
     8
 71
     3
 72
    14
 73
    10
 74
     0
 42
0.000000001
 43
0.0000000001
 40
0.0
 40
0.0
 40
0.0
 40
0.0
 40
0.25
 40
0.3125
 40
0.375
 40
0.5
 40
0.625
 40
0.75
 40
1.0
 40
1.0
 40
1.0
 40
1.0
 10
751.7693000984544
 20
1789.844753745407
 30
0.0
 10
751.8750261734519
 20
1789.956134113417
 30
0.0
 10
752.04993152893
 20
1790.085864135678
 30
0.0
 10
752.3281628365116
 20
1790.226832158905
 30
0.0
 10
752.5334847082025
 20
1790.31801763196
 30
0.0
 10
752.8142530401884
 20
1790.415311247074
 30
0.0
 10
753.20392461546
 20
1790.492299357701
 30
0.0
 10
753.7586629798851
 20
1790.549630018616
 30
0.0
 10
754.1734547634002
 20
1790.535319305295
 30
0.0
 10
754.4614735153264
 20
1790.501427618582
 30
0.0
  0
SPLINE
  5
284
330
166
100
AcDbEntity
  8
P-SANR-FIXT
100
AcDbSpline
210
0.0
220
0.0
230
1.0
 70
     8
 71
     3
 72
    14
 73
    10
 74
     0
 42
0.000000001
 43
0.0000000001
 40
0.0
 40
0.0
 40
0.0
 40
0.0
 40
0.25
 40
0.375
 40
0.5
 40
0.625
 40
0.6875
 40
0.75
 40
1.0
 40
1.0
 40
1.0
 40
1.0
 10
754.4614735153264
 20
1821.990329841523
 30
0.0
 10
754.1734547634002
 20
1821.956438154809
 30
0.0
 10
753.7586629798848
 20
1821.942127441488
 30
0.0
 10
753.2039246154599
 20
1821.999458102403
 30
0.0
 10
752.8142530401884
 20
1822.07644621303
 30
0.0
 10
752.5334847082025
 20
1822.173739828144
 30
0.0
 10
752.3281628365118
 20
1822.264925301199
 30
0.0
 10
752.04993152893
 20
1822.405893324426
 30
0.0
 10
751.8750261734519
 20
1822.535623346688
 30
0.0
 10
751.7693000984544
 20
1822.647003714697
 30
0.0
  0
SPLINE
  5
285
330
166
100
AcDbEntity
  8
P-SANR-FIXT
100
AcDbSpline
210
0.0
220
0.0
230
1.0
 70
     8
 71
     3
 72
    23
 73
    19
 74
     0
 42
0.000000001
 43
0.0000000001
 40
-1.0
 40
-1.0
 40
-1.0
 40
-1.0
 40
-0.9
 40
-0.85
 40
-0.8
 40
-0.75
 40
-0.7
 40
-0.65
 40
-0.6
 40
-0.575
 40
-0.55
 40
-0.5
 40
-0.45
 40
-0.4
 40
-0.35
 40
-0.3
 40
-0.2
 40
0.0
 40
0.0
 40
0.0
 40
0.0
 10
759.6660095724804
 20
1827.979463140556
 30
0.0
 10
759.444364510205
 20
1827.963597915742
 30
0.0
 10
759.1226714965416
 20
1827.911737770979
 30
0.0
 10
758.720992818475
 20
1827.79366965674
 30
0.0
 10
758.434189534146
 20
1827.683148124654
 30
0.0
 10
758.163148783843
 20
1827.548489074775
 30
0.0
 10
757.9085165677239
 20
1827.391538063822
 30
0.0
 10
757.670278863167
 20
1827.217921899026
 30
0.0
 10
757.4847381037402
 20
1827.064018343173
 30
0.0
 10
757.3449189866071
 20
1826.935704349665
 30
0.0
 10
757.211812219113
 20
1826.801762474866
 30
0.0
 10
757.0564418929424
 20
1826.626079493904
 30
0.0
 10
756.885328991883
 20
1826.404431354622
 30
0.0
 10
756.7253278009884
 20
1826.176083260566
 30
0.0
 10
756.5778027655523
 20
1825.940457637908
 30
0.0
 10
756.4013454948969
 20
1825.61315979964
 30
0.0
 10
756.1319101316201
 20
1825.015200142955
 30
0.0
 10
755.9595809557496
 20
1824.465199799726
 30
0.0
 10
755.8746324476731
 20
1824.079152978109
 30
0.0
  0
LWPOLYLINE
  5
286
330
166
100
AcDbEntity
  8
P-SANR-FIXT
100
AcDbPolyline
 90
        3
 70
   128
 43
0.0
 10
759.8658821728208
 20
1827.993953577648
 10
759.7659730709802
 20
1827.987325945714
 10
759.6660095724804
 20
1827.979463140556
  0
SPLINE
  5
287
330
166
100
AcDbEntity
  8
P-SANR-FIXT
100
AcDbSpline
210
0.0
220
0.0
230
1.0
 70
     8
 71
     3
 72
     9
 73
     5
 74
     0
 42
0.000000001
 43
0.0000000001
 40
-1.0
 40
-1.0
 40
-1.0
 40
-1.0
 40
-0.5
 40
0.0
 40
0.0
 40
0.0
 40
0.0
 10
751.1525715689539
 20
1789.342754272693
 30
0.0
 10
751.2633504389819
 20
1789.417558441601
 30
0.0
 10
751.476770898294
 20
1789.575863413968
 30
0.0
 10
751.6743498020921
 20
1789.752054602135
 30
0.0
 10
751.7693000984544
 20
1789.844753745407
 30
0.0
  0
SPLINE
  5
288
330
166
100
AcDbEntity
  8
P-SANR-FIXT
100
AcDbSpline
210
0.0
220
0.0
230
1.0
 70
     8
 71
     3
 72
     9
 73
     5
 74
     0
 42
0.000000001
 43
0.0000000001
 40
-1.0
 40
-1.0
 40
-1.0
 40
-1.0
 40
-0.5
 40
0.0
 40
0.0
 40
0.0
 40
0.0
 10
744.7367711664602
 20
1796.33523644919
 30
0.0
 10
745.9493645282134
 20
1795.300114188492
 30
0.0
 10
748.1888611300902
 20
1793.045178795152
 30
0.0
 10
750.1853625674087
 20
1790.572989749786
 30
0.0
 10
751.1525715689539
 20
1789.342754272693
 30
0.0
  0
SPLINE
  5
289
330
166
100
AcDbEntity
  8
P-SANR-FIXT
100
AcDbSpline
210
0.0
220
0.0
230
1.0
 70
     8
 71
     3
 72
     9
 73
     5
 74
     0
 42
0.000000001
 43
0.0000000001
 40
-1.0
 40
-1.0
 40
-1.0
 40
-1.0
 40
-0.5
 40
0.0
 40
0.0
 40
0.0
 40
0.0
 10
742.2329134814669
 20
1798.406732191509
 30
0.0
 10
742.6497032677819
 20
1798.08392446712
 30
0.0
 10
743.4822636026732
 20
1797.414654051596
 30
0.0
 10
744.3173780193369
 20
1796.70161321952
 30
0.0
 10
744.7367711664602
 20
1796.33523644919
 30
0.0
  0
SPLINE
  5
28A
330
166
100
AcDbEntity
  8
P-SANR-FIXT
100
AcDbSpline
210
0.0
220
0.0
230
1.0
 70
     8
 71
     3
 72
     8
 73
     4
 74
     0
 42
0.000000001
 43
0.0000000001
 40
-1.0
 40
-1.0
 40
-1.0
 40
-1.0
 40
-0.9704968523378783
 40
-0.9704968523378783
 40
-0.9704968523378783
 40
-0.9704968523378783
 10
738.6664074431878
 20
1795.698573305174
 30
0.0
 10
738.6682570666793
 20
1795.758225478166
 30
0.0
 10
738.6719385402525
 20
1795.816762641629
 30
0.0
 10
738.6774470673298
 20
1795.874166644817
 30
0.0
  0
SPLINE
  5
28B
330
166
100
AcDbEntity
  8
P-SANR-FIXT
100
AcDbSpline
210
0.0
220
0.0
230
1.0
 70
     8
 71
     3
 72
    33
 73
    29
 74
     0
 42
0.000000001
 43
0.0000000001
 40
-0.9
 40
-0.9
 40
-0.9
 40
-0.9
 40
-0.875
 40
-0.85
 40
-0.825
 40
-0.8
 40
-0.775
 40
-0.75
 40
-0.725
 40
-0.7
 40
-0.675
 40
-0.65
 40
-0.6
 40
-0.5
 40
-0.4
 40
-0.35
 40
-0.3
 40
-0.275
 40
-0.25
 40
-0.225
 40
-0.2
 40
-0.175
 40
-0.15
 40
-0.125
 40
-0.1
 40
-0.075
 40
-0.05
 40
0.0
 40
0.0
 40
0.0
 40
0.0
 10
738.7478964368366
 20
1796.266096539222
 30
0.0
 10
738.7599763277092
 20
1796.310054908118
 30
0.0
 10
738.7871210022772
 20
1796.396168230732
 30
0.0
 10
738.8363804461715
 20
1796.519997915011
 30
0.0
 10
738.8919482997182
 20
1796.639110760336
 30
0.0
 10
738.9512735888091
 20
1796.754343297761
 30
0.0
 10
739.014959691508
 20
1796.86516963777
 30
0.0
 10
739.0843838367271
 20
1796.971172068678
 30
0.0
 10
739.1577738898742
 20
1797.073257456257
 30
0.0
 10
739.2337518131139
 20
1797.17231223651
 30
0.0
 10
739.3125735876408
 20
1797.268017001122
 30
0.0
 10
739.4226879959658
 20
1797.390340388231
 30
0.0
 10
739.6238453723066
 20
1797.594243425464
 30
0.0
 10
739.9331830743432
 20
1797.857921335402
 30
0.0
 10
740.2657858248844
 20
1798.088201580624
 30
0.0
 10
740.5434805122001
 20
1798.252939376315
 30
0.0
 10
740.7228542393332
 20
1798.344664204505
 30
0.0
 10
740.8698773490712
 20
1798.411259393181
 30
0.0
 10
740.9815735980479
 20
1798.4588756451
 30
0.0
 10
741.0954445002372
 20
1798.501466766731
 30
0.0
 10
741.2120422142246
 20
1798.53487955008
 30
0.0
 10
741.33155807471
 20
1798.564525992805
 30
0.0
 10
741.4534998471664
 20
1798.591195316522
 30
0.0
 10
741.577808811734
 20
1798.606325677505
 30
0.0
 10
741.7042591004567
 20
1798.602017072903
 30
0.0
 10
741.8328427248463
 20
1798.577065753805
 30
0.0
 10
742.0073433355347
 20
1798.524071703926
 30
0.0
 10
742.1416872206638
 20
1798.459981857792
 30
0.0
 10
742.2329134814669
 20
1798.406732191509
 30
0.0
  0
SPLINE
  5
28C
330
166
100
AcDbEntity
  8
P-SANR-FIXT
100
AcDbSpline
210
0.0
220
0.0
230
1.0
 70
     8
 71
     3
 72
     8
 73
     4
 74
     0
 42
0.000000001
 43
0.0000000001
 40
-0.0196767835731356
 40
-0.0196767835731356
 40
-0.0196767835731356
 40
-0.0196767835731356
 40
0.0
 40
0.0
 40
0.0
 40
0.0
 10
738.6625278325226
 20
1789.275127213829
 30
0.0
 10
738.6643825401484
 20
1789.306548748829
 30
0.0
 10
738.6656718477846
 20
1789.338449769402
 30
0.0
 10
738.6664074431878
 20
1789.370835949365
 30
0.0
  0
SPLINE
  5
28D
330
166
100
AcDbEntity
  8
P-SANR-FIXT
100
AcDbSpline
210
0.0
220
0.0
230
1.0
 70
     8
 71
     3
 72
     8
 73
     4
 74
     0
 42
0.000000001
 43
0.0000000001
 40
-1.0
 40
-1.0
 40
-1.0
 40
-1.0
 40
-0.9803232164268491
 40
-0.9803232164268491
 40
-0.9803232164268491
 40
-0.9803232164268491
 10
738.6664074431877
 20
1823.12092151074
 30
0.0
 10
738.6656718477845
 20
1823.153307690702
 30
0.0
 10
738.6643603615237
 20
1823.185211356181
 30
0.0
 10
738.6624710281449
 20
1823.21663699945
 30
0.0
  0
SPLINE
  5
28E
330
166
100
AcDbEntity
  8
P-SANR-FIXT
100
AcDbSpline
210
0.0
220
0.0
230
1.0
 70
     8
 71
     3
 72
    33
 73
    29
 74
     0
 42
0.000000001
 43
0.0000000001
 40
-1.0
 40
-1.0
 40
-1.0
 40
-1.0
 40
-0.95
 40
-0.925
 40
-0.9
 40
-0.875
 40
-0.85
 40
-0.825
 40
-0.8
 40
-0.775
 40
-0.75
 40
-0.725
 40
-0.7
 40
-0.65
 40
-0.6
 40
-0.5
 40
-0.4
 40
-0.35
 40
-0.3250000000000001
 40
-0.3
 40
-0.275
 40
-0.25
 40
-0.225
 40
-0.2
 40
-0.175
 40
-0.15
 40
-0.125
 40
-0.1
 40
-0.1
 40
-0.1
 40
-0.1
 10
742.2329134814669
 20
1814.085025268595
 30
0.0
 10
742.1416872206638
 20
1814.031775602312
 30
0.0
 10
742.0073433355347
 20
1813.967685756178
 30
0.0
 10
741.8328427248463
 20
1813.914691706299
 30
0.0
 10
741.7042591004567
 20
1813.889740387202
 30
0.0
 10
741.577808811734
 20
1813.885431782599
 30
0.0
 10
741.4534998471662
 20
1813.900562143583
 30
0.0
 10
741.33155807471
 20
1813.9272314673
 30
0.0
 10
741.2120422142246
 20
1813.956877910024
 30
0.0
 10
741.0954445002372
 20
1813.990290693373
 30
0.0
 10
740.9815735980479
 20
1814.032881815004
 30
0.0
 10
740.8698773490712
 20
1814.080498066924
 30
0.0
 10
740.7228542393332
 20
1814.147093255599
 30
0.0
 10
740.5434805122
 20
1814.23881808379
 30
0.0
 10
740.2657858248844
 20
1814.403555879481
 30
0.0
 10
739.9331830743432
 20
1814.633836124702
 30
0.0
 10
739.6238453723066
 20
1814.897514034641
 30
0.0
 10
739.4226879959658
 20
1815.101417071873
 30
0.0
 10
739.3125735876408
 20
1815.223740458982
 30
0.0
 10
739.2337518131139
 20
1815.319445223594
 30
0.0
 10
739.1577738898742
 20
1815.418500003847
 30
0.0
 10
739.0843838367271
 20
1815.520585391426
 30
0.0
 10
739.014959691508
 20
1815.626587822334
 30
0.0
 10
738.9512735888091
 20
1815.737414162343
 30
0.0
 10
738.8919482997182
 20
1815.852646699768
 30
0.0
 10
738.8363804461715
 20
1815.971759545093
 30
0.0
 10
738.7871210022772
 20
1816.095589229372
 30
0.0
 10
738.7599763277092
 20
1816.181702551986
 30
0.0
 10
738.7478964368368
 20
1816.225660920883
 30
0.0
  0
SPLINE
  5
28F
330
166
100
AcDbEntity
  8
P-SANR-FIXT
100
AcDbSpline
210
0.0
220
0.0
230
1.0
 70
     8
 71
     3
 72
     8
 73
     4
 74
     0
 42
0.000000001
 43
0.0000000001
 40
-0.0295031476620963
 40
-0.0295031476620963
 40
-0.0295031476620963
 40
-0.0295031476620963
 40
0.0
 40
0.0
 40
0.0
 40
0.0
 10
738.6774470673298
 20
1816.617590815287
 30
0.0
 10
738.6719385402525
 20
1816.674994818475
 30
0.0
 10
738.6682570666792
 20
1816.733531981938
 30
0.0
 10
738.6664074431878
 20
1816.79318415493
 30
0.0
  0
SPLINE
  5
290
330
166
100
AcDbEntity
  8
P-SANR-FIXT
100
AcDbSpline
210
0.0
220
0.0
230
1.0
 70
     8
 71
     3
 72
     9
 73
     5
 74
     0
 42
0.000000001
 43
0.0000000001
 40
-1.0
 40
-1.0
 40
-1.0
 40
-1.0
 40
-0.5
 40
0.0
 40
0.0
 40
0.0
 40
0.0
 10
744.7367711664601
 20
1816.156521010914
 30
0.0
 10
744.3173780193369
 20
1815.790144240585
 30
0.0
 10
743.4822636026732
 20
1815.077103408509
 30
0.0
 10
742.6497032677819
 20
1814.407832992984
 30
0.0
 10
742.2329134814669
 20
1814.085025268595
 30
0.0
  0
SPLINE
  5
291
330
166
100
AcDbEntity
  8
P-SANR-FIXT
100
AcDbSpline
210
0.0
220
0.0
230
1.0
 70
     8
 71
     3
 72
     9
 73
     5
 74
     0
 42
0.000000001
 43
0.0000000001
 40
-1.0
 40
-1.0
 40
-1.0
 40
-1.0
 40
-0.5
 40
0.0
 40
0.0
 40
0.0
 40
0.0
 10
751.1525715689536
 20
1823.149003187412
 30
0.0
 10
750.1853625674084
 20
1821.918767710318
 30
0.0
 10
748.1888611300901
 20
1819.446578664952
 30
0.0
 10
745.9493645282133
 20
1817.191643271612
 30
0.0
 10
744.7367711664601
 20
1816.156521010914
 30
0.0
  0
SPLINE
  5
292
330
166
100
AcDbEntity
  8
P-SANR-FIXT
100
AcDbSpline
210
0.0
220
0.0
230
1.0
 70
     8
 71
     3
 72
     9
 73
     5
 74
     0
 42
0.000000001
 43
0.0000000001
 40
-1.0
 40
-1.0
 40
-1.0
 40
-1.0
 40
-0.5
 40
0.0
 40
0.0
 40
0.0
 40
0.0
 10
751.7693000984544
 20
1822.647003714697
 30
0.0
 10
751.6743498020921
 20
1822.739702857969
 30
0.0
 10
751.476770898294
 20
1822.915894046136
 30
0.0
 10
751.2633504389819
 20
1823.074199018503
 30
0.0
 10
751.1525715689536
 20
1823.149003187412
 30
0.0
  0
LINE
  5
293
330
166
100
AcDbEntity
  8
P-SANR-FIXT
100
AcDbLine
 10
737.1338545798122
 20
1808.745878730052
 30
0.0
 11
757.1989603065623
 21
1808.745878730052
 31
0.0
  0
LINE
  5
294
330
166
100
AcDbEntity
  8
P-SANR-FIXT
100
AcDbLine
 10
757.1989603065623
 20
1803.745878730052
 30
0.0
 11
737.1338545798121
 21
1803.745878730052
 31
0.0
  0
ELLIPSE
  5
295
330
166
100
AcDbEntity
  8
P-SANR-FIXT
100
AcDbEllipse
 10
692.76640744318
 20
1806.245878730052
 30
0.0
 11
0.0
 21
27.00000000001376
 31
0.0
210
0.0
220
0.0
230
1.0
 40
0.7071067811865551
 41
2.754807523350352
 42
3.105873246861206
  0
LINE
  5
296
330
166
100
AcDbEntity
  8
P-SANR-FIXT
100
AcDbLine
 10
711.1775502567592
 20
1799.100275844589
 30
0.0
 11
711.1825312170321
 21
1799.125993176683
 31
0.0
  0
ARC
  5
297
330
166
100
AcDbEntity
  8
P-SANR-FIXT
100
AcDbCircle
 10
776.6664074431873
 20
1806.245878730052
 30
0.0
 40
9.000000000000493
100
AcDbArc
 50
332.733955549538
 51
0.0
  0
ARC
  5
298
330
166
100
AcDbEntity
  8
P-SANR-FIXT
100
AcDbCircle
 10
776.6664074431873
 20
1806.245878730052
 30
0.0
 40
9.000000000000499
100
AcDbArc
 50
272.7339555495361
 51
327.2660444504616
  0
ARC
  5
299
330
166
100
AcDbEntity
  8
P-SANR-FIXT
100
AcDbCircle
 10
776.6664074431873
 20
1806.245878730052
 30
0.0
 40
9.000000000000675
100
AcDbArc
 50
212.7339555495269
 51
267.266044450469
  0
ARC
  5
29A
330
166
100
AcDbEntity
  8
P-SANR-FIXT
100
AcDbCircle
 10
776.6664074431873
 20
1806.245878730052
 30
0.0
 40
9.000000000000795
100
AcDbArc
 50
179.9999999999993
 51
207.2660444504788
  0
ARC
  5
29B
330
166
100
AcDbEntity
  8
P-SANR-FIXT
100
AcDbCircle
 10
776.6664074431873
 20
1806.245878730052
 30
0.0
 40
9.000000000000786
100
AcDbArc
 50
152.7339555495184
 51
180.0
  0
ARC
  5
29C
330
166
100
AcDbEntity
  8
P-SANR-FIXT
100
AcDbCircle
 10
776.6664074431873
 20
1806.245878730052
 30
0.0
 40
9.000000000000714
100
AcDbArc
 50
92.73395554951967
 51
147.266044450478
  0
ARC
  5
29D
330
166
100
AcDbEntity
  8
P-SANR-FIXT
100
AcDbCircle
 10
776.6664074431873
 20
1806.245878730052
 30
0.0
 40
9.000000000000573
100
AcDbArc
 50
32.73395554952816
 51
87.26604445047016
  0
ARC
  5
29E
330
166
100
AcDbEntity
  8
P-SANR-FIXT
100
AcDbCircle
 10
776.6664074431873
 20
1806.245878730052
 30
0.0
 40
9.000000000000454
100
AcDbArc
 50
0.0
 51
27.26604445045992
  0
ARC
  5
29F
330
166
100
AcDbEntity
  8
P-SANR-FIXT
100
AcDbCircle
 10
776.6664074431875
 20
1806.245878730052
 30
0.0
 40
8.999999999999964
100
AcDbArc
 50
327.2660444504551
 51
332.7339555495431
  0
LINE
  5
2A0
330
166
100
AcDbEntity
  8
P-SANR-FIXT
100
AcDbLine
 10
784.6664074432072
 20
1802.122773104473
 30
0.0
 11
784.6664074432072
 21
1810.368984355631
 31
0.0
  0
ARC
  5
2A1
330
166
100
AcDbEntity
  8
P-SANR-FIXT
100
AcDbCircle
 10
776.6664074431875
 20
1806.245878730052
 30
0.0
 40
9.000000000000023
100
AcDbArc
 50
27.26604445045504
 51
32.7339555495344
  0
LINE
  5
2A2
330
166
100
AcDbEntity
  8
P-SANR-FIXT
100
AcDbLine
 10
784.2371216574361
 20
1811.112529147554
 30
0.0
 11
777.0956932289583
 21
1815.235634773134
 31
0.0
  0
ARC
  5
2A3
330
166
100
AcDbEntity
  8
P-SANR-FIXT
100
AcDbCircle
 10
776.6664074431875
 20
1806.245878730052
 30
0.0
 40
9.000000000000049
100
AcDbArc
 50
87.2660444504627
 51
92.7339555495279
  0
LINE
  5
2A4
330
166
100
AcDbEntity
  8
P-SANR-FIXT
100
AcDbLine
 10
776.2371216574178
 20
1815.235634773135
 30
0.0
 11
769.0956932289383
 21
1811.112529147554
 31
0.0
  0
ARC
  5
2A5
330
166
100
AcDbEntity
  8
P-SANR-FIXT
100
AcDbCircle
 10
776.6664074431875
 20
1806.245878730052
 30
0.0
 40
9.000000000000129
100
AcDbArc
 50
147.2660444504699
 51
152.7339555495279
  0
LINE
  5
2A6
330
166
100
AcDbEntity
  8
P-SANR-FIXT
100
AcDbLine
 10
768.6664074431686
 20
1810.368984355633
 30
0.0
 11
768.6664074431684
 21
1802.122773104471
 31
0.0
  0
ARC
  5
2A7
330
166
100
AcDbEntity
  8
P-SANR-FIXT
100
AcDbCircle
 10
776.6664074431875
 20
1806.245878730052
 30
0.0
 40
9.000000000000099
100
AcDbArc
 50
207.2660444504688
 51
212.7339555495357
  0
LINE
  5
2A8
330
166
100
AcDbEntity
  8
P-SANR-FIXT
100
AcDbLine
 10
769.0956932289389
 20
1801.37922831255
 30
0.0
 11
776.2371216574162
 21
1797.25612268697
 31
0.0
  0
ARC
  5
2A9
330
166
100
AcDbEntity
  8
P-SANR-FIXT
100
AcDbCircle
 10
776.6664074431875
 20
1806.245878730052
 30
0.0
 40
8.999999999999948
100
AcDbArc
 50
267.2660444504609
 51
272.7339555495428
  0
LINE
  5
2AA
330
166
100
AcDbEntity
  8
P-SANR-FIXT
100
AcDbLine
 10
777.0956932289593
 20
1797.25612268697
 30
0.0
 11
784.2371216574353
 21
1801.379228312549
 31
0.0
  0
ARC
  5
2AB
330
166
100
AcDbEntity
  8
P-SANR-FIXT
100
AcDbCircle
 10
716.6664074431873
 20
1806.245878730052
 30
0.0
 40
9.00000000000076
100
AcDbArc
 50
332.733955549532
 51
0.0
  0
ARC
  5
2AC
330
166
100
AcDbEntity
  8
P-SANR-FIXT
100
AcDbCircle
 10
716.6664074431873
 20
1806.245878730052
 30
0.0
 40
9.000000000000705
100
AcDbArc
 50
272.7339555495331
 51
327.266044450465
  0
ARC
  5
2AD
330
166
100
AcDbEntity
  8
P-SANR-FIXT
100
AcDbCircle
 10
716.6664074431873
 20
1806.245878730052
 30
0.0
 40
9.00000000000073
100
AcDbArc
 50
212.7339555495292
 51
267.266044450469
  0
ARC
  5
2AE
330
166
100
AcDbEntity
  8
P-SANR-FIXT
100
AcDbCircle
 10
716.6664074431873
 20
1806.245878730052
 30
0.0
 40
9.000000000000568
100
AcDbArc
 50
180.0
 51
207.2660444504728
  0
ARC
  5
2AF
330
166
100
AcDbEntity
  8
P-SANR-FIXT
100
AcDbCircle
 10
716.6664074431873
 20
1806.245878730052
 30
0.0
 40
9.000000000000675
100
AcDbArc
 50
152.7339555495219
 51
180.0
  0
ARC
  5
2B0
330
166
100
AcDbEntity
  8
P-SANR-FIXT
100
AcDbCircle
 10
716.6664074431873
 20
1806.245878730052
 30
0.0
 40
9.000000000000607
100
AcDbArc
 50
92.73395554952047
 51
147.266044450477
  0
ARC
  5
2B1
330
166
100
AcDbEntity
  8
P-SANR-FIXT
100
AcDbCircle
 10
716.6664074431873
 20
1806.245878730052
 30
0.0
 40
9.000000000000586
100
AcDbArc
 50
32.73395554952467
 51
87.26604445047298
  0
ARC
  5
2B2
330
166
100
AcDbEntity
  8
P-SANR-FIXT
100
AcDbCircle
 10
716.6664074431873
 20
1806.245878730052
 30
0.0
 40
9.000000000000682
100
AcDbArc
 50
0.0
 51
27.26604445046666
  0
ARC
  5
2B3
330
166
100
AcDbEntity
  8
P-SANR-FIXT
100
AcDbCircle
 10
716.666407443187
 20
1806.245878730052
 30
0.0
 40
9.00000000000006
100
AcDbArc
 50
327.2660444504552
 51
332.7339555495432
  0
LINE
  5
2B4
330
166
100
AcDbEntity
  8
P-SANR-FIXT
100
AcDbLine
 10
724.6664074432069
 20
1802.122773104473
 30
0.0
 11
724.666407443207
 21
1810.368984355631
 31
0.0
  0
ARC
  5
2B5
330
166
100
AcDbEntity
  8
P-SANR-FIXT
100
AcDbCircle
 10
716.666407443187
 20
1806.245878730052
 30
0.0
 40
9.000000000000023
100
AcDbArc
 50
27.26604445045504
 51
32.7339555495344
  0
LINE
  5
2B6
330
166
100
AcDbEntity
  8
P-SANR-FIXT
100
AcDbLine
 10
724.2371216574357
 20
1811.112529147554
 30
0.0
 11
717.095693228958
 21
1815.235634773134
 31
0.0
  0
ARC
  5
2B7
330
166
100
AcDbEntity
  8
P-SANR-FIXT
100
AcDbCircle
 10
716.666407443187
 20
1806.245878730052
 30
0.0
 40
8.999999999999936
100
AcDbArc
 50
87.26604445046268
 51
92.7339555495272
  0
LINE
  5
2B8
330
166
100
AcDbEntity
  8
P-SANR-FIXT
100
AcDbLine
 10
716.2371216574175
 20
1815.235634773135
 30
0.0
 11
709.0956932289381
 21
1811.112529147554
 31
0.0
  0
ARC
  5
2B9
330
166
100
AcDbEntity
  8
P-SANR-FIXT
100
AcDbCircle
 10
716.666407443187
 20
1806.245878730052
 30
0.0
 40
8.999999999999875
100
AcDbArc
 50
147.2660444504698
 51
152.7339555495283
  0
LINE
  5
2BA
330
166
100
AcDbEntity
  8
P-SANR-FIXT
100
AcDbLine
 10
708.6664074431682
 20
1810.368984355633
 30
0.0
 11
708.6664074431682
 21
1802.122773104471
 31
0.0
  0
ARC
  5
2BB
330
166
100
AcDbEntity
  8
P-SANR-FIXT
100
AcDbCircle
 10
716.666407443187
 20
1806.245878730052
 30
0.0
 40
8.999999999999896
100
AcDbArc
 50
207.2660444504689
 51
212.7339555495352
  0
LINE
  5
2BC
330
166
100
AcDbEntity
  8
P-SANR-FIXT
100
AcDbLine
 10
709.0956932289384
 20
1801.37922831255
 30
0.0
 11
716.237121657416
 21
1797.25612268697
 31
0.0
  0
ARC
  5
2BD
330
166
100
AcDbEntity
  8
P-SANR-FIXT
100
AcDbCircle
 10
716.666407443187
 20
1806.245878730052
 30
0.0
 40
8.999999999999936
100
AcDbArc
 50
267.2660444504623
 51
272.7339555495443
  0
LINE
  5
2BE
330
166
100
AcDbEntity
  8
P-SANR-FIXT
100
AcDbLine
 10
717.0956932289591
 20
1797.25612268697
 30
0.0
 11
724.2371216574349
 21
1801.379228312549
 31
0.0
  0
LINE
  5
2BF
330
166
100
AcDbEntity
  8
P-SANR-FIXT
100
AcDbLine
 10
711.1813811212186
 20
1813.37171123405
 30
0.0
 11
711.1775502567621
 21
1813.3914816155
 31
0.0
  0
ELLIPSE
  5
2C0
330
166
100
AcDbEntity
  8
P-SANR-FIXT
100
AcDbEllipse
 10
692.76640744318
 20
1806.245878730052
 30
0.0
 11
0.0
 21
27.00000000001373
 31
0.0
210
0.0
220
0.0
230
1.0
 40
0.707106781186552
 41
0.036955812631019
 42
0.3867851302394189
  0
ENDBLK
  5
2C2
330
166
100
AcDbEntity
  8
0
100
AcDbBlockEnd
  0
BLOCK
  5
352
330
2C4
100
AcDbEntity
  8
0
100
AcDbBlockBegin
  2
Automatic flow rate regulator valve_Caleffi_121 DN15 - 1_2__-V2-Est - Idraulica
 70
     0
 10
0.0
 20
0.0
 30
0.0
  3
Automatic flow rate regulator valve_Caleffi_121 DN15 - 1_2__-V2-Est - Idraulica
  1

  0
LINE
  5
2C5
330
2C4
100
AcDbEntity
  8
M-PIPE
100
AcDbLine
 10
1079.614353943096
 20
1911.236617303922
 30
0.0
 11
1079.614353943096
 21
1911.812918442237
 31
0.0
1001
REVIT
1002
{
1070
     3
1000
790271
1002
}
  0
LINE
  5
2C6
330
2C4
100
AcDbEntity
  8
M-PIPE
100
AcDbLine
 10
1079.614353943096
 20
1912.006972512874
 30
0.0
 11
1079.614353943096
 21
1913.004384256888
 31
0.0
1001
REVIT
1002
{
1070
     3
1000
790271
1002
}
  0
LINE
  5
2C7
330
2C4
100
AcDbEntity
  8
M-PIPE
100
AcDbLine
 10
1054.614353943108
 20
1913.004384256888
 30
0.0
 11
1054.614353943108
 21
1912.006972512874
 31
0.0
1001
REVIT
1002
{
1070
     3
1000
790271
1002
}
  0
LINE
  5
2C8
330
2C4
100
AcDbEntity
  8
M-PIPE
100
AcDbLine
 10
1054.614353943108
 20
1911.812918442237
 30
0.0
 11
1054.614353943108
 21
1911.236617303922
 31
0.0
1001
REVIT
1002
{
1070
     3
1000
790271
1002
}
  0
ELLIPSE
  5
2C9
330
2C4
100
AcDbEntity
  8
M-PIPE
100
AcDbEllipse
 10
1067.1143539431
 20
1913.004384256887
 30
0.0
 11
12.49999999999386
 21
0.0
 31
0.0
210
0.0
220
0.0
230
1.0
 40
0.7071067811865595
 41
0.0
 42
3.141592653589793
1001
REVIT
1002
{
1070
     3
1000
790271
1002
}
  0
ELLIPSE
  5
2CA
330
2C4
100
AcDbEntity
  8
M-PIPE
100
AcDbEllipse
 10
1067.1143539431
 20
1910.883063913328
 30
0.0
 11
-11.99999999999409
 21
0.0000000000004537
 31
0.0
210
0.0
220
0.0
230
1.0
 40
0.7071067811865416
 41
0.0000000000000282
 42
0.9053586194644445
1001
REVIT
1002
{
1070
     3
1000
790271
1002
}
  0
LINE
  5
2CB
330
2C4
100
AcDbEntity
  8
M-PIPE
100
AcDbLine
 10
1059.751014246739
 20
1904.18301807334
 30
0.0
 11
1059.766489816152
 21
1904.174528574978
 31
0.0
1001
REVIT
1002
{
1070
     3
1000
790271
1002
}
  0
LINE
  5
2CC
330
2C4
100
AcDbEntity
  8
M-PIPE
100
AcDbLine
 10
1074.462218070048
 20
1904.174528574978
 30
0.0
 11
1074.47769363946
 21
1904.18301807334
 31
0.0
1001
REVIT
1002
{
1070
     3
1000
790271
1002
}
  0
ELLIPSE
  5
2CD
330
2C4
100
AcDbEntity
  8
M-PIPE
100
AcDbEllipse
 10
1067.1143539431
 20
1910.883063913328
 30
0.0
 11
11.99999999999423
 21
0.0
 31
0.0
210
0.0
220
0.0
230
0.9999999999999998
 40
0.7071067811865262
 41
5.377826687756242
 42
6.283185307179586
1001
REVIT
1002
{
1070
     3
1000
790271
1002
}
  0
ELLIPSE
  5
2CE
330
2C4
100
AcDbEntity
  8
M-PIPE
100
AcDbEllipse
 10
1067.1143539431
 20
1910.883063913328
 30
0.0
 11
11.99999999999409
 21
0.0
 31
0.0
210
0.0
220
0.0
230
1.0
 40
0.7071067811865606
 41
0.0
 42
3.141592653589766
1001
REVIT
1002
{
1070
     3
1000
790271
1002
}
  0
LINE
  5
2CF
330
2C4
100
AcDbEntity
  8
M-PIPE
100
AcDbLine
 10
1056.722049097669
 20
1910.883063913334
 30
0.0
 11
1061.918201520381
 21
1917.247024944018
 31
0.0
1001
REVIT
1002
{
1070
     3
1000
790271
1002
}
  0
LINE
  5
2D0
330
2C4
100
AcDbEntity
  8
M-PIPE
100
AcDbLine
 10
1061.918201520381
 20
1917.247024944018
 30
0.0
 11
1072.310506365794
 21
1917.247024944018
 31
0.0
1001
REVIT
1002
{
1070
     3
1000
790271
1002
}
  0
LINE
  5
2D1
330
2C4
100
AcDbEntity
  8
M-PIPE
100
AcDbLine
 10
1072.310506365794
 20
1917.247024944018
 30
0.0
 11
1077.50665878851
 21
1910.883063913328
 31
0.0
1001
REVIT
1002
{
1070
     3
1000
790271
1002
}
  0
ELLIPSE
  5
2D2
330
2C4
100
AcDbEntity
  8
M-PIPE
100
AcDbEllipse
 10
1067.1143539431
 20
1911.236617303921
 30
0.0
 11
12.49999999999409
 21
0.0
 31
0.0
210
0.0
220
0.0
230
1.0
 40
0.7071067811865466
 41
5.326948406953214
 42
6.283185307179586
1001
REVIT
1002
{
1070
     3
1000
790271
1002
}
  0
ELLIPSE
  5
2D3
330
2C4
100
AcDbEntity
  8
M-PIPE
100
AcDbEllipse
 10
1067.1143539431
 20
1911.236617303921
 30
0.0
 11
12.49999999999413
 21
0.0
 31
0.0
210
0.0
220
0.0
230
1.0
 40
0.7071067811865475
 41
3.141592653589767
 42
4.09782955387538
1001
REVIT
1002
{
1070
     3
1000
790271
1002
}
  0
ELLIPSE
  5
2D4
330
2C4
100
AcDbEntity
  8
M-PIPE
100
AcDbEllipse
 10
1067.1143539431
 20
1911.236617303921
 30
0.0
 11
-12.49999999999386
 21
0.000000000000456
 31
0.0
210
0.0
220
0.0
230
1.0
 40
0.7071067811865777
 41
3.14159265358984
 42
6.283185307179613
1001
REVIT
1002
{
1070
     3
1000
790271
1002
}
  0
ELLIPSE
  5
2D5
330
2C4
100
AcDbEntity
  8
M-PIPE
100
AcDbEllipse
 10
1067.1143539431
 20
1907.842504754203
 30
0.0
 11
9.0
 21
0.0
 31
0.0
210
0.0
220
0.0
230
1.0
 40
0.7071067811865659
 41
3.141592653589793
 42
3.527389557659208
1001
REVIT
1002
{
1070
     3
1000
790271
1002
}
  0
ELLIPSE
  5
2D6
330
2C4
100
AcDbEntity
  8
M-PIPE
100
AcDbEllipse
 10
1067.1143539431
 20
1907.842504754203
 30
0.0
 11
8.999999999999902
 21
0.0
 31
0.0
210
0.0
220
0.0
230
1.0
 40
0.707106781186568
 41
3.534291735288472
 42
3.665191429188043
1001
REVIT
1002
{
1070
     3
1000
790271
1002
}
  0
ELLIPSE
  5
2D7
330
2C4
100
AcDbEntity
  8
M-PIPE
100
AcDbEllipse
 10
1067.1143539431
 20
1907.842504754203
 30
0.0
 11
9.000000000000035
 21
0.0
 31
0.0
210
0.0
220
0.0
230
1.0
 40
0.7071067811865733
 41
3.66519142918804
 42
4.712388980384657
1001
REVIT
1002
{
1070
     3
1000
790271
1002
}
  0
ELLIPSE
  5
2D8
330
2C4
100
AcDbEntity
  8
M-PIPE
100
AcDbEllipse
 10
1067.1143539431
 20
1907.842504754203
 30
0.0
 11
-9.0
 21
0.0000000000001324
 31
0.0
210
0.0
220
0.0
230
1.0
 40
0.7071067811865659
 41
1.570796326794883
 42
2.617993877991473
1001
REVIT
1002
{
1070
     3
1000
790271
1002
}
  0
ELLIPSE
  5
2D9
330
2C4
100
AcDbEntity
  8
M-PIPE
100
AcDbEllipse
 10
1067.1143539431
 20
1907.842504754203
 30
0.0
 11
9.000000000000063
 21
0.0
 31
0.0
210
0.0
220
0.0
230
1.0
 40
0.7071067811865306
 41
5.759586531581225
 42
5.890486225480842
1001
REVIT
1002
{
1070
     3
1000
790271
1002
}
  0
ELLIPSE
  5
2DA
330
2C4
100
AcDbEntity
  8
M-PIPE
100
AcDbEllipse
 10
1067.1143539431
 20
1907.842504754203
 30
0.0
 11
8.999999999999815
 21
0.0
 31
0.0
210
0.0
220
0.0
230
1.0
 40
0.7071067811865591
 41
5.89738840285891
 42
6.283185307179544
1001
REVIT
1002
{
1070
     3
1000
790271
1002
}
  0
ELLIPSE
  5
2DB
330
2C4
100
AcDbEntity
  8
M-PIPE
100
AcDbEllipse
 10
1067.1143539431
 20
1907.842504754203
 30
0.0
 11
-9.0
 21
0.0000000000004542
 31
0.0
210
0.0
220
0.0
230
1.0
 40
0.7071067811865407
 41
3.141592653589824
 42
3.665191429188106
1001
REVIT
1002
{
1070
     3
1000
790271
1002
}
  0
ELLIPSE
  5
2DC
330
2C4
100
AcDbEntity
  8
M-PIPE
100
AcDbEllipse
 10
1067.1143539431
 20
1907.842504754203
 30
0.0
 11
8.999999999999836
 21
0.0
 31
0.0
210
0.0
220
0.0
230
1.0
 40
0.7071067811865543
 41
0.5235987755982472
 42
1.570796326794871
1001
REVIT
1002
{
1070
     3
1000
790271
1002
}
  0
ELLIPSE
  5
2DD
330
2C4
100
AcDbEntity
  8
M-PIPE
100
AcDbEllipse
 10
1067.1143539431
 20
1907.842504754203
 30
0.0
 11
9.0
 21
0.0
 31
0.0
210
0.0
220
0.0
230
1.0
 40
0.7071067811865407
 41
1.570796326794871
 42
2.617993877991506
1001
REVIT
1002
{
1070
     3
1000
790271
1002
}
  0
ELLIPSE
  5
2DE
330
2C4
100
AcDbEntity
  8
M-PIPE
100
AcDbEllipse
 10
1067.1143539431
 20
1907.842504754203
 30
0.0
 11
9.000000000000063
 21
0.0
 31
0.0
210
0.0
220
0.0
230
1.0
 40
0.7071067811865492
 41
2.617993877991511
 42
3.141592653589793
1001
REVIT
1002
{
1070
     3
1000
790271
1002
}
  0
LINE
  5
2DF
330
2C4
100
AcDbEntity
  8
M-PIPE
100
AcDbLine
 10
1061.918201520381
 20
1917.24702494404
 30
0.0
 11
1061.918201520381
 21
1914.774871857846
 31
0.0
1001
REVIT
1002
{
1070
     3
1000
790271
1002
}
  0
SPLINE
  5
2E0
330
2C4
100
AcDbEntity
  8
M-PIPE
100
AcDbSpline
210
0.0
220
0.0
230
1.0
 70
     8
 71
     3
 72
     9
 73
     5
 74
     0
 42
0.000000001
 43
0.0000000001
 40
0.0
 40
0.0
 40
0.0
 40
0.0
 40
0.5
 40
1.0
 40
1.0
 40
1.0
 40
1.0
 10
1061.918201520381
 20
1914.774871857846
 30
0.0
 10
1062.77794025989
 20
1914.591401852064
 30
0.0
 10
1064.503704403187
 20
1914.313197500789
 30
0.0
 10
1066.242041875036
 20
1914.212464470095
 30
0.0
 10
1067.1143539431
 20
1914.206465784893
 30
0.0
1001
REVIT
1002
{
1070
     3
1000
790271
1002
}
  0
SPLINE
  5
2E1
330
2C4
100
AcDbEntity
  8
M-PIPE
100
AcDbSpline
210
0.0
220
0.0
230
1.0
 70
     8
 71
     3
 72
     9
 73
     5
 74
     0
 42
0.000000001
 43
0.0000000001
 40
0.0
 40
0.0
 40
0.0
 40
0.0
 40
0.5
 40
1.0
 40
1.0
 40
1.0
 40
1.0
 10
1067.1143539431
 20
1914.206465784893
 30
0.0
 10
1067.986666011159
 20
1914.212464470095
 30
0.0
 10
1069.725003483
 20
1914.313197500788
 30
0.0
 10
1071.450767626288
 20
1914.59140185206
 30
0.0
 10
1072.310506365794
 20
1914.774871857841
 30
0.0
1001
REVIT
1002
{
1070
     3
1000
790271
1002
}
  0
LINE
  5
2E2
330
2C4
100
AcDbEntity
  8
M-PIPE
100
AcDbLine
 10
1072.310506365794
 20
1914.774871857841
 30
0.0
 11
1072.310506365794
 21
1917.24702494404
 31
0.0
1001
REVIT
1002
{
1070
     3
1000
790271
1002
}
  0
SPLINE
  5
2E3
330
2C4
100
AcDbEntity
  8
M-PIPE
100
AcDbSpline
210
0.0
220
0.0
230
1.0
 70
     8
 71
     3
 72
     9
 73
     5
 74
     0
 42
0.000000001
 43
0.0000000001
 40
0.0
 40
0.0
 40
0.0
 40
0.0
 40
0.5
 40
1.0
 40
1.0
 40
1.0
 40
1.0
 10
1072.310506365794
 20
1914.774871857841
 30
0.0
 10
1072.740375735549
 20
1914.06492154608
 30
0.0
 10
1073.603257807199
 20
1912.729906802937
 30
0.0
 10
1074.472426543125
 20
1911.564663820547
 30
0.0
 10
1074.908582577158
 20
1911.024485269541
 30
0.0
1001
REVIT
1002
{
1070
     3
1000
790271
1002
}
  0
SPLINE
  5
2E4
330
2C4
100
AcDbEntity
  8
M-PIPE
100
AcDbSpline
210
0.0
220
0.0
230
1.0
 70
     8
 71
     3
 72
     9
 73
     5
 74
     0
 42
0.000000001
 43
0.0000000001
 40
0.0
 40
0.0
 40
0.0
 40
0.0
 40
0.5
 40
1.0
 40
1.0
 40
1.0
 40
1.0
 10
1074.908582577158
 20
1911.024485269541
 30
0.0
 10
1075.344738611188
 20
1910.496304088935
 30
0.0
 10
1076.21390734711
 20
1909.532527167929
 30
0.0
 10
1077.076789418755
 20
1908.753921127336
 30
0.0
 10
1077.506658788508
 20
1908.410910827143
 30
0.0
1001
REVIT
1002
{
1070
     3
1000
790271
1002
}
  0
LINE
  5
2E5
330
2C4
100
AcDbEntity
  8
M-PIPE
100
AcDbLine
 10
1077.506658788497
 20
1908.410910827147
 30
0.0
 11
1077.506658788501
 21
1910.883063913361
 31
0.0
1001
REVIT
1002
{
1070
     3
1000
790271
1002
}
  0
SPLINE
  5
2E6
330
2C4
100
AcDbEntity
  8
M-PIPE
100
AcDbSpline
210
0.0
220
0.0
230
1.0
 70
     8
 71
     3
 72
     9
 73
     5
 74
     0
 42
0.000000001
 43
0.0000000001
 40
0.0
 40
0.0
 40
0.0
 40
0.0
 40
0.5
 40
0.7026711233450916
 40
0.7026711233450916
 40
0.7026711233450916
 40
0.7026711233450916
 10
1077.506658788497
 20
1908.410910827147
 30
0.0
 10
1077.076789418743
 20
1907.700960515389
 30
0.0
 10
1076.470467104146
 20
1906.762884206146
 30
0.0
 10
1075.861040769759
 20
1905.908632144818
 30
0.0
 10
1075.685005971513
 20
1905.669214072396
 30
0.0
1001
REVIT
1002
{
1070
     3
1000
790271
1002
}
  0
SPLINE
  5
2E7
330
2C4
100
AcDbEntity
  8
M-PIPE
100
AcDbSpline
210
0.0
220
0.0
230
1.0
 70
     8
 71
     3
 72
     9
 73
     5
 74
     0
 42
0.000000001
 43
0.0000000001
 40
0.3006192112740397
 40
0.3006192112740397
 40
0.3006192112740397
 40
0.3006192112740397
 40
0.5
 40
1.0
 40
1.0
 40
1.0
 40
1.0
 10
1074.123585693066
 20
1903.758038517844
 30
0.0
 10
1073.950417041258
 20
1903.569617588757
 30
0.0
 10
1073.343858879391
 20
1902.934502203434
 30
0.0
 10
1072.740375735546
 20
1902.38996009666
 30
0.0
 10
1072.310506365794
 20
1902.046949796471
 30
0.0
1001
REVIT
1002
{
1070
     3
1000
790271
1002
}
  0
SPLINE
  5
2E8
330
2C4
100
AcDbEntity
  8
M-PIPE
100
AcDbSpline
210
0.0
220
0.0
230
1.0
 70
     8
 71
     3
 72
     8
 73
     4
 74
     0
 42
0.000000001
 43
0.0000000001
 40
0.0
 40
0.0
 40
0.0
 40
0.0
 40
0.5
 40
0.5
 40
0.5
 40
0.5
 10
1072.310506365794
 20
1902.046949796471
 30
0.0
 10
1071.450767626289
 20
1901.863479790687
 30
0.0
 10
1070.587885554646
 20
1901.724377615051
 30
0.0
 10
1069.721860150863
 20
1901.629643269562
 30
0.0
1001
REVIT
1002
{
1070
     3
1000
790271
1002
}
  0
SPLINE
  5
2E9
330
2C4
100
AcDbEntity
  8
M-PIPE
100
AcDbSpline
210
0.0
220
0.0
230
1.0
 70
     8
 71
     3
 72
     8
 73
     4
 74
     0
 42
0.000000001
 43
0.0000000001
 40
0.6640365490339079
 40
0.6640365490339079
 40
0.6640365490339079
 40
0.6640365490339079
 40
0.7747396101142905
 40
0.7747396101142905
 40
0.7747396101142905
 40
0.7747396101142905
 10
1068.868486270215
 20
1901.550730088158
 30
0.0
 10
1068.676286296971
 20
1901.536200851066
 30
0.0
 10
1068.483725605979
 20
1901.526763110203
 30
0.0
 10
1068.291008456226
 20
1901.519533769689
 30
0.0
1001
REVIT
1002
{
1070
     3
1000
790271
1002
}
  0
SPLINE
  5
2EA
330
2C4
100
AcDbEntity
  8
M-PIPE
100
AcDbSpline
210
0.0
220
0.0
230
1.0
 70
     8
 71
     3
 72
     8
 73
     4
 74
     0
 42
0.000000001
 43
0.0000000001
 40
0.225260389884615
 40
0.225260389884615
 40
0.225260389884615
 40
0.225260389884615
 40
0.3359634509644438
 40
0.3359634509644438
 40
0.3359634509644438
 40
0.3359634509644438
 10
1065.937283800468
 20
1901.513667199289
 30
0.0
 10
1065.744775650723
 20
1901.523846554777
 30
0.0
 10
1065.552289518751
 20
1901.53433668901
 30
0.0
 10
1065.35998505324
 20
1901.547391027834
 30
0.0
1001
REVIT
1002
{
1070
     3
1000
790271
1002
}
  0
SPLINE
  5
2EB
330
2C4
100
AcDbEntity
  8
M-PIPE
100
AcDbSpline
210
0.0
220
0.0
230
1.0
 70
     8
 71
     3
 72
     8
 73
     4
 74
     0
 42
0.000000001
 43
0.0000000001
 40
0.5
 40
0.5
 40
0.5
 40
0.5
 40
1.0
 40
1.0
 40
1.0
 40
1.0
 10
1064.506847735323
 20
1901.629643269563
 30
0.0
 10
1063.640822331537
 20
1901.724377615053
 30
0.0
 10
1062.777940259889
 20
1901.863479790691
 30
0.0
 10
1061.918201520381
 20
1902.046949796476
 30
0.0
1001
REVIT
1002
{
1070
     3
1000
790271
1002
}
  0
SPLINE
  5
2EC
330
2C4
100
AcDbEntity
  8
M-PIPE
100
AcDbSpline
210
0.0
220
0.0
230
1.0
 70
     8
 71
     3
 72
     9
 73
     5
 74
     0
 42
0.000000001
 43
0.0000000001
 40
0.0
 40
0.0
 40
0.0
 40
0.0
 40
0.5
 40
0.6993807884358124
 40
0.6993807884358124
 40
0.6993807884358124
 40
0.6993807884358124
 10
1061.918201520381
 20
1902.046949796476
 30
0.0
 10
1061.488332150629
 20
1902.389960096667
 30
0.0
 10
1060.884849007036
 20
1902.934502203214
 30
0.0
 10
1060.278290845423
 20
1903.569617588233
 30
0.0
 10
1060.105122193869
 20
1903.758038517023
 30
0.0
1001
REVIT
1002
{
1070
     3
1000
790271
1002
}
  0
SPLINE
  5
2ED
330
2C4
100
AcDbEntity
  8
M-PIPE
100
AcDbSpline
210
0.0
220
0.0
230
1.0
 70
     8
 71
     3
 72
     8
 73
     4
 74
     0
 42
0.000000001
 43
0.0000000001
 40
0.0
 40
0.0
 40
0.0
 40
0.0
 40
0.0626264846763683
 40
0.0626264846763683
 40
0.0626264846763683
 40
0.0626264846763683
 10
1059.320125309038
 20
1904.660524238862
 30
0.0
 10
1059.265495470674
 20
1904.728183206356
 30
0.0
 10
1059.210890289089
 20
1904.796508031697
 30
0.0
 10
1059.156309764283
 20
1904.865498714886
 30
0.0
1001
REVIT
1002
{
1070
     3
1000
790271
1002
}
  0
SPLINE
  5
2EE
330
2C4
100
AcDbEntity
  8
M-PIPE
100
AcDbSpline
210
0.0
220
0.0
230
1.0
 70
     8
 71
     3
 72
     9
 73
     5
 74
     0
 42
0.000000001
 43
0.0000000001
 40
0.2973288766552944
 40
0.2973288766552944
 40
0.2973288766552944
 40
0.2973288766552944
 40
0.5
 40
1.0
 40
1.0
 40
1.0
 40
1.0
 10
1058.543701914666
 20
1905.669214072397
 30
0.0
 10
1058.36766711642
 20
1905.908632144819
 30
0.0
 10
1057.758240782034
 20
1906.762884206151
 30
0.0
 10
1057.151918467436
 20
1907.700960515396
 30
0.0
 10
1056.722049097682
 20
1908.410910827156
 30
0.0
1001
REVIT
1002
{
1070
     3
1000
790271
1002
}
  0
LINE
  5
2EF
330
2C4
100
AcDbEntity
  8
M-PIPE
100
AcDbLine
 10
1056.72204909767
 20
1908.410910827161
 30
0.0
 11
1056.722049097674
 21
1910.883063913361
 31
0.0
1001
REVIT
1002
{
1070
     3
1000
790271
1002
}
  0
SPLINE
  5
2F0
330
2C4
100
AcDbEntity
  8
M-PIPE
100
AcDbSpline
210
0.0
220
0.0
230
1.0
 70
     8
 71
     3
 72
     9
 73
     5
 74
     0
 42
0.000000001
 43
0.0000000001
 40
0.0
 40
0.0
 40
0.0
 40
0.0
 40
0.5
 40
1.0
 40
1.0
 40
1.0
 40
1.0
 10
1056.72204909767
 20
1908.410910827161
 30
0.0
 10
1057.151918467424
 20
1908.753921127354
 30
0.0
 10
1058.01480053907
 20
1909.532527167944
 30
0.0
 10
1058.883969274993
 20
1910.496304088945
 30
0.0
 10
1059.320125309024
 20
1911.024485269549
 30
0.0
1001
REVIT
1002
{
1070
     3
1000
790271
1002
}
  0
SPLINE
  5
2F1
330
2C4
100
AcDbEntity
  8
M-PIPE
100
AcDbSpline
210
0.0
220
0.0
230
1.0
 70
     8
 71
     3
 72
     9
 73
     5
 74
     0
 42
0.000000001
 43
0.0000000001
 40
0.0
 40
0.0
 40
0.0
 40
0.0
 40
0.5
 40
1.0
 40
1.0
 40
1.0
 40
1.0
 10
1059.320125309024
 20
1911.024485269549
 30
0.0
 10
1059.756281343055
 20
1911.564663820557
 30
0.0
 10
1060.625450078979
 20
1912.729906802949
 30
0.0
 10
1061.488332150626
 20
1914.064921546089
 30
0.0
 10
1061.918201520381
 20
1914.774871857846
 30
0.0
1001
REVIT
1002
{
1070
     3
1000
790271
1002
}
  0
LWPOLYLINE
  5
2F2
330
2C4
100
AcDbEntity
  8
P-SANR-FIXT
100
AcDbPolyline
 90
       24
 70
   128
 43
0.0
 10
1096.364353943098
 20
1964.885920983375
 10
1096.339361109099
 20
1965.76947844749
 10
1096.264468249561
 20
1966.651084596841
 10
1096.139929710803
 20
1967.528811581594
 10
1095.966161044614
 20
1968.400776974416
 10
1095.743727288291
 20
1969.265162899449
 10
1095.47332806257
 20
1970.120231348213
 10
1095.155780719132
 20
1970.964335124061
 10
1094.792002797563
 20
1971.795924300402
 10
1094.382994933909
 20
1972.613548473811
 10
1093.929825139577
 20
1973.415855394502
 10
1093.433615090062
 20
1974.201586741448
 10
1092.895528775951
 20
1974.969571878727
 10
1092.316763611179
 20
1975.718720402063
 10
1091.69854388894
 20
1976.448014187744
 10
1091.042116333105
 20
1977.156499519887
 10
1090.34874741043
 20
1977.843279722343
 10
1089.619722037184
 20
1978.507508578163
 10
1088.856343320488
 20
1979.148384694716
 10
1088.059933006947
 20
1979.76514687235
 10
1087.231832357669
 20
1980.35707046013
 10
1086.373403220786
 20
1980.923464631447
 10
1085.486029123907
 20
1981.463670481593
 10
1085.259178064545
 20
1981.590964481446
  0
LWPOLYLINE
  5
2F3
330
2C4
100
AcDbEntity
  8
P-SANR-FIXT
100
AcDbPolyline
 90
       25
 70
   128
 43
0.0
 10
1048.968284540768
 20
1981.591683444699
 10
1048.84140945638
 20
1981.521126765736
 10
1047.95095508788
 20
1980.983823269144
 10
1047.089293031457
 20
1980.420261279067
 10
1046.257809247904
 20
1979.831096293577
 10
1045.457867903857
 20
1979.217015569724
 10
1044.690812457705
 20
1978.57873994278
 10
1043.957966742047
 20
1977.917026455592
 10
1043.260635870512
 20
1977.232671898273
 10
1042.600106745767
 20
1976.526517329699
 10
1041.977647893405
 20
1975.799453603917
 10
1041.394508298815
 20
1975.05242785295
 10
1040.851914889881
 20
1974.2864507801
 10
1040.351068298196
 20
1973.502604495578
 10
1039.893136558376
 20
1972.702050484396
 10
1039.479246481473
 20
1971.886037146708
 10
1039.110472574241
 20
1971.05590621188
 10
1038.787823574021
 20
1970.213097225111
 10
1038.512226921532
 20
1969.359149268736
 10
1038.284511779269
 20
1968.495699137979
 10
1038.10539148553
 20
1967.624475362597
 10
1037.975446566045
 20
1966.747287755159
 10
1037.895109556763
 20
1965.866012554062
 10
1037.864652880454
 20
1964.982573670743
 10
1037.864353943098
 20
1964.885920983375
  0
LINE
  5
2F4
330
2C4
100
AcDbEntity
  8
P-SANR-FIXT
100
AcDbLine
 10
1096.364353943098
 20
1928.297991743266
 30
0.0
 11
1096.364353943098
 21
1964.885920983374
 31
0.0
  0
LINE
  5
2F5
330
2C4
100
AcDbEntity
  8
P-SANR-FIXT
100
AcDbLine
 10
1037.864353943098
 20
1964.885920983375
 30
0.0
 11
1037.864353943098
 21
1928.297991743266
 31
0.0
  0
LWPOLYLINE
  5
2F6
330
2C4
100
AcDbEntity
  8
P-SANR-FIXT
100
AcDbPolyline
 90
       12
 70
   128
 43
0.0
 10
1094.114353943112
 20
1920.093706759591
 10
1094.264986013063
 20
1920.352251737687
 10
1094.686021239591
 20
1921.165870881673
 10
1095.062108762669
 20
1921.993829551343
 10
1095.392228286796
 20
1922.834704104585
 10
1095.675438202718
 20
1923.686971418489
 10
1095.910892388477
 20
1924.549010097405
 10
1096.097857735282
 20
1925.419105753925
 10
1096.235731307985
 20
1926.295460735929
 10
1096.324055899024
 20
1927.176208298854
 10
1096.362532720662
 20
1928.059430785743
 10
1096.364353943098
 20
1928.297991743267
  0
LWPOLYLINE
  5
2F7
330
2C4
100
AcDbEntity
  8
P-SANR-FIXT
100
AcDbPolyline
 90
       11
 70
   128
 43
0.0
 10
1037.864353943098
 20
1928.297991743267
 10
1037.889346777098
 20
1927.414434279151
 10
1037.964239636635
 20
1926.532828129801
 10
1038.088778175393
 20
1925.655101145048
 10
1038.262546841582
 20
1924.783135752225
 10
1038.484980597906
 20
1923.918749827192
 10
1038.755379823626
 20
1923.063681378429
 10
1039.072927167064
 20
1922.219577602581
 10
1039.436705088633
 20
1921.387988426239
 10
1039.845712952287
 20
1920.570364252831
 10
1040.114353943085
 20
1920.094753281416
  0
LINE
  5
2F8
330
2C4
100
AcDbEntity
  8
P-SANR-FIXT
100
AcDbLine
 10
1094.114353943099
 20
1921.489665631198
 30
0.0
 11
1094.114353943099
 21
1926.12121504797
 31
0.0
  0
LINE
  5
2F9
330
2C4
100
AcDbEntity
  8
P-SANR-FIXT
100
AcDbLine
 10
1040.114353943098
 20
1926.12121504797
 30
0.0
 11
1040.114353943098
 21
1921.489665631198
 31
0.0
  0
LINE
  5
2FA
330
2C4
100
AcDbEntity
  8
P-SANR-FIXT
100
AcDbLine
 10
1076.614353943098
 20
2023.365244752191
 30
0.0
 11
1076.614353943098
 21
2027.482558850012
 31
0.0
  0
LINE
  5
2FB
330
2C4
100
AcDbEntity
  8
P-SANR-FIXT
100
AcDbLine
 10
1057.614353943098
 20
2027.482558850012
 30
0.0
 11
1057.614353943098
 21
2023.365244752191
 31
0.0
  0
LINE
  5
2FC
330
2C4
100
AcDbEntity
  8
P-SANR-FIXT
100
AcDbLine
 10
1076.614353943098
 20
2027.482558850012
 30
0.0
 11
1076.114353943099
 21
2027.982558850011
 31
0.0
  0
LINE
  5
2FD
330
2C4
100
AcDbEntity
  8
P-SANR-FIXT
100
AcDbLine
 10
1058.114353943097
 20
2027.982558850011
 30
0.0
 11
1057.614353943098
 21
2027.482558850012
 31
0.0
  0
LWPOLYLINE
  5
2FE
330
2C4
100
AcDbEntity
  8
P-SANR-FIXT
100
AcDbPolyline
 90
        6
 70
   128
 43
0.0
 10
1092.614353943099
 20
1993.592208895014
 10
1092.590764755287
 20
1994.426191753755
 10
1092.520126248038
 20
1995.257764795219
 10
1092.402820495331
 20
1996.084562743814
 10
1092.239467794734
 20
1996.904306396405
 10
1092.161906216373
 20
1997.205729845374
  0
LWPOLYLINE
  5
2FF
330
2C4
100
AcDbEntity
  8
P-SANR-FIXT
100
AcDbPolyline
 90
        7
 70
   128
 43
0.0
 10
1042.114353943098
 20
1997.390345712846
 10
1041.991234286775
 20
1996.913032369371
 10
1041.827392997016
 20
1996.093376116371
 10
1041.709590806412
 20
1995.266641779423
 10
1041.638450449974
 20
1994.435107434444
 10
1041.614356645561
 20
1993.601137647872
 10
1041.614353943098
 20
1993.592208895015
  0
LINE
  5
300
330
2C4
100
AcDbEntity
  8
P-SANR-FIXT
100
AcDbLine
 10
1092.614353943099
 20
1975.299032506061
 30
0.0
 11
1092.614353943099
 21
1993.592208895014
 31
0.0
  0
LINE
  5
301
330
2C4
100
AcDbEntity
  8
P-SANR-FIXT
100
AcDbLine
 10
1041.614353943098
 20
1993.592208895015
 30
0.0
 11
1041.614353943098
 21
1975.304705648936
 31
0.0
  0
LWPOLYLINE
  5
302
330
2C4
100
AcDbEntity
  8
P-SANR-FIXT
100
AcDbPolyline
 90
       41
 70
   128
 43
0.0
 10
1040.114353943084
 20
1919.368345287599
 10
1040.136749040155
 20
1918.576642029482
 10
1040.203875674358
 20
1917.786474233342
 10
1040.31555919054
 20
1916.999364733124
 10
1040.471512760553
 20
1916.216811861817
 10
1040.671343369703
 20
1915.440278995701
 10
1040.914559444555
 20
1914.671186009404
 10
1041.200579505972
 20
1913.910902922408
 10
1041.528741217083
 20
1913.160745795774
 10
1041.898310254665
 20
1912.42197473995
 10
1042.30848854406
 20
1911.695793743792
 10
1042.758421537257
 20
1910.983351942535
 10
1043.247204357266
 20
1910.285745907772
 10
1043.773886760535
 20
1909.604022556287
 10
1044.337476971375
 20
1908.939182322955
 10
1044.936944513576
 20
1908.292182311028
 10
1045.571222205603
 20
1907.663939207882
 10
1046.239207501502
 20
1907.055331826027
 10
1046.939763356275
 20
1906.467203191524
 10
1047.671718778245
 20
1905.900362152016
 10
1048.433869207632
 20
1905.355584513758
 10
1049.224976834459
 20
1904.833613742327
 10
1050.043770943227
 20
1904.335161277037
 10
1050.888948348375
 20
1903.860906516585
 10
1051.759173964397
 20
1903.411496535271
 10
1052.653081538038
 20
1902.987545587115
 10
1053.569274556924
 20
1902.589634450717
 10
1054.506327339181
 20
1902.218309662049
 10
1055.462786301402
 20
1901.874082676181
 10
1056.437171397306
 20
1901.557428992855
 10
1057.427977716145
 20
1901.26878727512
 10
1058.433677227896
 20
1901.008558485109
 10
1059.452720661194
 20
1900.777105056558
 10
1060.483539499544
 20
1900.574750119833
 10
1061.524548081407
 20
1900.40177679201
 10
1062.574145789994
 20
1900.258427541865
 10
1063.630719319129
 20
1900.144903637452
 10
1064.692645001966
 20
1900.061364682142
 10
1065.758291189916
 20
1900.007928243535
 10
1066.826020669543
 20
1899.984669578434
 10
1067.114353943098
 20
1899.98356897674
  0
LINE
  5
303
330
2C4
100
AcDbEntity
  8
P-SANR-FIXT
100
AcDbLine
 10
1076.114353943099
 20
2027.982558850011
 30
0.0
 11
1076.114353943099
 21
2029.982558850009
 31
0.0
  0
LINE
  5
304
330
2C4
100
AcDbEntity
  8
P-SANR-FIXT
100
AcDbLine
 10
1058.114353943097
 20
2029.982558850009
 30
0.0
 11
1058.114353943097
 21
2027.982558850011
 31
0.0
  0
LINE
  5
305
330
2C4
100
AcDbEntity
  8
P-SANR-FIXT
100
AcDbLine
 10
1058.114353943098
 20
2033.482558850018
 30
0.0
 11
1058.114353943098
 21
2029.982558850009
 31
0.0
  0
LINE
  5
306
330
2C4
100
AcDbEntity
  8
P-SANR-FIXT
100
AcDbLine
 10
1076.114353943098
 20
2029.982558850009
 30
0.0
 11
1076.114353943098
 21
2033.482558850018
 31
0.0
  0
LWPOLYLINE
  5
307
330
2C4
100
AcDbEntity
  8
P-SANR-FIXT
100
AcDbPolyline
 90
       41
 70
   128
 43
0.0
 10
1067.114353943098
 20
1899.98356897674
 10
1068.182364672774
 20
1899.998675023551
 10
1069.248734645402
 20
1900.043971879835
 10
1070.311825563418
 20
1900.11939574324
 10
1071.370004036799
 20
1900.224840443166
 10
1072.421644008171
 20
1900.360157689436
 10
1073.465129143161
 20
1900.525157417723
 10
1074.498855173905
 20
1900.719608228832
 10
1075.521232183143
 20
1900.94323791775
 10
1076.530686815884
 20
1901.195734087042
 10
1077.525664405069
 20
1901.476744837428
 10
1078.504630997236
 20
1901.785879526305
 10
1079.46607526381
 20
1902.122709582474
 10
1080.408510283531
 20
1902.486769362195
 10
1081.330475181814
 20
1902.877557028108
 10
1082.230536613714
 20
1903.294535428179
 10
1083.107290078876
 20
1903.737132946927
 10
1083.959361059802
 20
1904.204744295599
 10
1084.785405979222
 20
1904.696731201942
 10
1085.584112978962
 20
1905.21242295407
 10
1086.354202531707
 20
1905.751116746975
 10
1087.094427909244
 20
1906.312077775425
 10
1087.803575546226
 20
1906.89453901412
 10
1088.480465357726
 20
1907.497700626604
 10
1089.123951091386
 20
1908.120728950228
 10
1089.732920820227
 20
1908.762755017417
 10
1090.306297708413
 20
1909.422872595965
 10
1090.843041206689
 20
1910.100135764826
 10
1091.342148852884
 20
1910.793556088509
 10
1091.802658860305
 20
1911.502099512317
 10
1092.223653666938
 20
1912.224683170407
 10
1092.604264584545
 20
1912.960172373318
 10
1092.943677623976
 20
1913.707378112759
 10
1093.241140478924
 20
1914.465055476512
 10
1093.495970528059
 20
1915.231903390923
 10
1093.707563574408
 20
1916.006566088037
 10
1093.875402898076
 20
1916.787636618084
 10
1093.999068076709
 20
1917.573662592496
 10
1094.078242952773
 20
1918.363154155622
 10
1094.112722119739
 20
1919.154593965006
 10
1094.114353943112
 20
1919.368345287599
  0
LINE
  5
308
330
2C4
100
AcDbEntity
  8
P-SANR-FIXT
100
AcDbLine
 10
1094.114353943112
 20
1919.368345287599
 30
0.0
 11
1094.114353943112
 21
1920.782558849973
 31
0.0
  0
LINE
  5
309
330
2C4
100
AcDbEntity
  8
P-SANR-FIXT
100
AcDbLine
 10
1040.114353943084
 20
1920.782558849973
 30
0.0
 11
1040.114353943084
 21
1919.368345287599
 31
0.0
  0
ELLIPSE
  5
30A
330
2C4
100
AcDbEntity
  8
P-SANR-FIXT
100
AcDbEllipse
 10
1067.114353943096
 20
1926.121215047969
 30
0.0
 11
27.00000000000022
 21
0.0
 31
0.0
210
0.0
220
0.0
230
0.9999999999999998
 40
0.7071067811865431
 41
0.0
 42
1.570796326794896
  0
ELLIPSE
  5
30B
330
2C4
100
AcDbEntity
  8
P-SANR-FIXT
100
AcDbEllipse
 10
1067.114353943096
 20
1926.121215047969
 30
0.0
 11
27.00000000000022
 21
0.0
 31
0.0
210
0.0
220
0.0
230
0.9999999999999998
 40
0.7071067811865431
 41
1.570796326794896
 42
3.141592653589793
  0
ELLIPSE
  5
30C
330
2C4
100
AcDbEntity
  8
P-SANR-FIXT
100
AcDbEllipse
 10
1067.114353943096
 20
1921.489665631197
 30
0.0
 11
27.0
 21
0.0
 31
0.0
210
0.0
220
0.0
230
1.0
 40
0.7071067811865575
 41
6.250499698612593
 42
7.853981633974482
  0
ELLIPSE
  5
30D
330
2C4
100
AcDbEntity
  8
P-SANR-FIXT
100
AcDbEllipse
 10
1067.114353943096
 20
1921.489665631197
 30
0.0
 11
27.00000000000006
 21
0.0
 31
0.0
210
0.0
220
0.0
230
1.0
 40
0.7071067811865416
 41
1.570796326794896
 42
3.174278262156785
  0
ARC
  5
30E
330
2C4
100
AcDbEntity
  8
P-SANR-FIXT
100
AcDbCircle
 10
1067.114353943096
 20
1999.982558850011
 30
0.0
 40
15.89999999999986
100
AcDbArc
 50
269.9999999999997
 51
90.0
  0
ARC
  5
30F
330
2C4
100
AcDbEntity
  8
P-SANR-FIXT
100
AcDbCircle
 10
1067.114353943096
 20
1999.982558850011
 30
0.0
 40
15.90000000000009
100
AcDbArc
 50
90.00000000000081
 51
269.9999999999997
  0
ARC
  5
310
330
2C4
100
AcDbEntity
  8
P-SANR-FIXT
100
AcDbCircle
 10
1067.114353943096
 20
1999.982558850011
 30
0.0
 40
24.49999999999965
100
AcDbArc
 50
269.9999999999994
 51
90.00000000000026
  0
SPLINE
  5
311
330
2C4
100
AcDbEntity
  8
P-SANR-FIXT
100
AcDbSpline
210
0.0
220
0.0
230
1.0
 70
    24
 71
     3
 72
     9
 73
     5
 74
     0
 42
0.000000001
 43
0.0000000001
 40
-1.0
 40
-1.0
 40
-1.0
 40
-1.0
 40
-0.5
 40
0.0
 40
0.0
 40
0.0
 40
0.0
 10
1072.002685269277
 20
1973.937324797588
 30
0.0
 10
1074.574838015841
 20
1975.422357878214
 30
0.0
 10
1079.684213653679
 20
1978.37225727811
 30
0.0
 10
1084.723729580933
 20
1981.281823155295
 30
0.0
 10
1087.226022616914
 20
1982.726522713211
 30
0.0
  0
SPLINE
  5
312
330
2C4
100
AcDbEntity
  8
P-SANR-FIXT
100
AcDbSpline
210
0.0
220
0.0
230
1.0
 70
    24
 71
     3
 72
     9
 73
     5
 74
     0
 42
0.000000001
 43
0.0000000001
 40
-1.0
 40
-1.0
 40
-1.0
 40
-1.0
 40
-0.5
 40
0.0
 40
0.0
 40
0.0
 40
0.0
 10
1092.114353943096
 20
1991.193360934387
 30
0.0
 10
1092.114353943096
 20
1994.163427095638
 30
0.0
 10
1092.114353943096
 20
2000.063225895431
 30
0.0
 10
1092.114353943096
 20
2005.882357649802
 30
0.0
 10
1092.114353943096
 20
2008.771756765634
 30
0.0
  0
SPLINE
  5
313
330
2C4
100
AcDbEntity
  8
P-SANR-FIXT
100
AcDbSpline
210
0.0
220
0.0
230
1.0
 70
    24
 71
     3
 72
     9
 73
     5
 74
     0
 42
0.000000001
 43
0.0000000001
 40
-1.0
 40
-1.0
 40
-1.0
 40
-1.0
 40
-0.5
 40
0.0
 40
0.0
 40
0.0
 40
0.0
 10
1087.226022616915
 20
2017.23859498681
 30
0.0
 10
1084.653869870351
 20
2018.723628067435
 30
0.0
 10
1079.544494232514
 20
2021.673527467332
 30
0.0
 10
1074.504978305259
 20
2024.583093344518
 30
0.0
 10
1072.002685269278
 20
2026.027792902433
 30
0.0
  0
ARC
  5
314
330
2C4
100
AcDbEntity
  8
P-SANR-FIXT
100
AcDbCircle
 10
1067.114353943096
 20
1999.982558850011
 30
0.0
 40
24.49999999999977
100
AcDbArc
 50
90.0
 51
269.9999999999991
  0
SPLINE
  5
315
330
2C4
100
AcDbEntity
  8
P-SANR-FIXT
100
AcDbSpline
210
0.0
220
0.0
230
1.0
 70
    24
 71
     3
 72
     9
 73
     5
 74
     0
 42
0.000000001
 43
0.0000000001
 40
-1.0
 40
-1.0
 40
-1.0
 40
-1.0
 40
-0.5
 40
0.0
 40
0.0
 40
0.0
 40
0.0
 10
1062.226022616915
 20
2026.027792902433
 30
0.0
 10
1059.653869870351
 20
2024.542759821808
 30
0.0
 10
1054.544494232514
 20
2021.592860421911
 30
0.0
 10
1049.504978305259
 20
2018.683294544726
 30
0.0
 10
1047.002685269277
 20
2017.23859498681
 30
0.0
  0
SPLINE
  5
316
330
2C4
100
AcDbEntity
  8
P-SANR-FIXT
100
AcDbSpline
210
0.0
220
0.0
230
1.0
 70
    24
 71
     3
 72
     9
 73
     5
 74
     0
 42
0.000000001
 43
0.0000000001
 40
-1.0
 40
-1.0
 40
-1.0
 40
-1.0
 40
-0.5
 40
0.0
 40
0.0
 40
0.0
 40
0.0
 10
1042.114353943096
 20
2008.771756765634
 30
0.0
 10
1042.114353943096
 20
2005.801690604383
 30
0.0
 10
1042.114353943096
 20
1999.90189180459
 30
0.0
 10
1042.114353943096
 20
1994.082760050218
 30
0.0
 10
1042.114353943096
 20
1991.193360934388
 30
0.0
  0
SPLINE
  5
317
330
2C4
100
AcDbEntity
  8
P-SANR-FIXT
100
AcDbSpline
210
0.0
220
0.0
230
1.0
 70
    24
 71
     3
 72
     9
 73
     5
 74
     0
 42
0.000000001
 43
0.0000000001
 40
-1.0
 40
-1.0
 40
-1.0
 40
-1.0
 40
-0.5
 40
0.0
 40
0.0
 40
0.0
 40
0.0
 10
1047.002685269277
 20
1982.726522713211
 30
0.0
 10
1049.574838015841
 20
1981.241489632586
 30
0.0
 10
1054.684213653678
 20
1978.291590232689
 30
0.0
 10
1059.723729580933
 20
1975.382024355504
 30
0.0
 10
1062.226022616914
 20
1973.937324797588
 30
0.0
  0
ARC
  5
318
330
2C4
100
AcDbEntity
  8
P-SANR-FIXT
100
AcDbCircle
 10
1067.114353943096
 20
1999.982558850011
 30
0.0
 40
26.4999999999997
100
AcDbArc
 50
319.3700382455375
 51
340.6299617544582
  0
ARC
  5
319
330
2C4
100
AcDbEntity
  8
P-SANR-FIXT
100
AcDbCircle
 10
1067.114353943096
 20
1999.982558850011
 30
0.0
 40
26.49999999999989
100
AcDbArc
 50
19.37003824553795
 51
40.62996175445864
  0
ARC
  5
31A
330
2C4
100
AcDbEntity
  8
P-SANR-FIXT
100
AcDbCircle
 10
1067.114353943096
 20
1999.982558850011
 30
0.0
 40
26.49999999999978
100
AcDbArc
 50
79.37003824553845
 51
90.0
  0
ARC
  5
31B
330
2C4
100
AcDbEntity
  8
P-SANR-FIXT
100
AcDbCircle
 10
1067.114353943096
 20
1999.982558850011
 30
0.0
 40
26.50000000000005
100
AcDbArc
 50
269.9999999999994
 51
280.6299617544584
  0
ARC
  5
31C
330
2C4
100
AcDbEntity
  8
P-SANR-FIXT
100
AcDbCircle
 10
1067.114353943096
 20
1999.982558850011
 30
0.0
 40
26.5
100
AcDbArc
 50
90.0
 51
100.6299617544593
  0
ARC
  5
31D
330
2C4
100
AcDbEntity
  8
P-SANR-FIXT
100
AcDbCircle
 10
1067.114353943096
 20
1999.982558850011
 30
0.0
 40
26.49999999999982
100
AcDbArc
 50
259.3700382455377
 51
269.9999999999992
  0
ARC
  5
31E
330
2C4
100
AcDbEntity
  8
P-SANR-FIXT
100
AcDbCircle
 10
1067.114353943096
 20
1999.982558850011
 30
0.0
 40
26.50000000000002
100
AcDbArc
 50
139.3700382455383
 51
160.6299617544589
  0
ARC
  5
31F
330
2C4
100
AcDbEntity
  8
P-SANR-FIXT
100
AcDbCircle
 10
1067.114353943096
 20
1999.982558850011
 30
0.0
 40
26.50000000000003
100
AcDbArc
 50
199.3700382455377
 51
220.6299617544585
  0
LINE
  5
320
330
2C4
100
AcDbEntity
  8
P-SANR-FIXT
100
AcDbLine
 10
1076.614353943097
 20
2027.482558850011
 30
0.0
 11
1067.114353943096
 21
2027.482558850011
 31
0.0
  0
LINE
  5
321
330
2C4
100
AcDbEntity
  8
P-SANR-FIXT
100
AcDbLine
 10
1067.114353943096
 20
2027.482558850011
 30
0.0
 11
1057.614353943096
 21
2027.482558850011
 31
0.0
  0
LINE
  5
322
330
2C4
100
AcDbEntity
  8
P-SANR-FIXT
100
AcDbLine
 10
1076.114353943097
 20
2027.98255885001
 30
0.0
 11
1074.908582577163
 21
2027.98255885001
 31
0.0
  0
LINE
  5
323
330
2C4
100
AcDbEntity
  8
P-SANR-FIXT
100
AcDbLine
 10
1074.908582577163
 20
2027.982558850009
 30
0.0
 11
1067.114353943096
 21
2027.982558850009
 31
0.0
  0
LINE
  5
324
330
2C4
100
AcDbEntity
  8
P-SANR-FIXT
100
AcDbLine
 10
1067.114353943096
 20
2027.982558850009
 30
0.0
 11
1059.320125309043
 21
2027.982558850009
 31
0.0
  0
LINE
  5
325
330
2C4
100
AcDbEntity
  8
P-SANR-FIXT
100
AcDbLine
 10
1059.320125309043
 20
2027.982558850009
 30
0.0
 11
1058.114353943095
 21
2027.982558850009
 31
0.0
  0
SPLINE
  5
326
330
2C4
100
AcDbEntity
  8
P-SANR-FIXT
100
AcDbSpline
210
0.0
220
0.0
230
1.0
 70
     8
 71
     3
 72
     8
 73
     4
 74
     0
 42
0.000000001
 43
0.0000000001
 40
-0.3555453224718226
 40
-0.3555453224718226
 40
-0.3555453224718226
 40
-0.3555453224718226
 40
-0.3539418332992628
 40
-0.3539418332992628
 40
-0.3539418332992628
 40
-0.3539418332992628
 10
1081.40579949115
 20
2006.914215395782
 30
0.0
 10
1081.409673976074
 20
2006.913799589022
 30
0.0
 10
1081.413549156932
 20
2006.913374298898
 30
0.0
 10
1081.417425027461
 20
2006.912939610824
 30
0.0
  0
SPLINE
  5
327
330
2C4
100
AcDbEntity
  8
P-SANR-FIXT
100
AcDbSpline
210
0.0
220
0.0
230
1.0
 70
     8
 71
     3
 72
     8
 73
     4
 74
     0
 42
0.000000001
 43
0.0000000001
 40
-0.6460581667008303
 40
-0.6460581667008303
 40
-0.6460581667008303
 40
-0.6460581667008303
 40
-0.6444546775282473
 40
-0.6444546775282473
 40
-0.6444546775282473
 40
-0.6444546775282473
 10
1052.811283802841
 20
2006.912958680469
 30
0.0
 10
1052.81515904539
 20
2006.913380684244
 30
0.0
 10
1052.8190345987
 20
2006.913802473431
 30
0.0
 10
1052.822910438111
 20
2006.914223954011
 30
0.0
  0
ELLIPSE
  5
328
330
2C4
100
AcDbEntity
  8
P-SANR-FIXT
100
AcDbEllipse
 10
1067.114353943096
 20
1920.782558849972
 30
0.0
 11
27.00000000001387
 21
0.0
 31
0.0
210
0.0
220
0.0
230
0.9999999999999998
 40
0.7071067811865479
 41
0.0
 42
1.570796326794896
  0
ELLIPSE
  5
329
330
2C4
100
AcDbEntity
  8
P-SANR-FIXT
100
AcDbEllipse
 10
1067.114353943096
 20
1918.661238506413
 30
0.0
 11
15.35335501156441
 21
0.0
 31
0.0
210
0.0
220
0.0
230
1.0
 40
0.7071067811865479
 41
1.570796326794896
 42
3.428021857536975
  0
LINE
  5
32A
330
2C4
100
AcDbEntity
  8
P-SANR-FIXT
100
AcDbLine
 10
1071.981004360598
 20
2029.982558850008
 30
0.0
 11
1076.10410998618
 21
2029.982558850008
 31
0.0
  0
LINE
  5
32B
330
2C4
100
AcDbEntity
  8
P-SANR-FIXT
100
AcDbLine
 10
1067.114353943096
 20
2029.982558850008
 30
0.0
 11
1071.237459568678
 21
2029.982558850008
 31
0.0
  0
LINE
  5
32C
330
2C4
100
AcDbEntity
  8
P-SANR-FIXT
100
AcDbLine
 10
1062.991248317514
 20
2029.982558850008
 30
0.0
 11
1067.114353943096
 21
2029.982558850008
 31
0.0
  0
LINE
  5
32D
330
2C4
100
AcDbEntity
  8
P-SANR-FIXT
100
AcDbLine
 10
1058.124597900013
 20
2029.982558850008
 30
0.0
 11
1062.247703525595
 21
2029.982558850008
 31
0.0
  0
LINE
  5
32E
330
2C4
100
AcDbEntity
  8
P-SANR-FIXT
100
AcDbLine
 10
1058.114353943096
 20
2033.482558850018
 30
0.0
 11
1058.124597900014
 21
2033.482558850018
 31
0.0
  0
LINE
  5
32F
330
2C4
100
AcDbEntity
  8
P-SANR-FIXT
100
AcDbLine
 10
1058.124597900014
 20
2033.482558850018
 30
0.0
 11
1062.247703525595
 21
2033.482558850018
 31
0.0
  0
LINE
  5
330
330
2C4
100
AcDbEntity
  8
P-SANR-FIXT
100
AcDbLine
 10
1062.247703525595
 20
2033.482558850018
 30
0.0
 11
1062.991248317515
 21
2033.482558850018
 31
0.0
  0
LINE
  5
331
330
2C4
100
AcDbEntity
  8
P-SANR-FIXT
100
AcDbLine
 10
1062.991248317515
 20
2033.482558850018
 30
0.0
 11
1071.237459568677
 21
2033.482558850018
 31
0.0
  0
LINE
  5
332
330
2C4
100
AcDbEntity
  8
P-SANR-FIXT
100
AcDbLine
 10
1071.237459568677
 20
2033.482558850018
 30
0.0
 11
1071.981004360599
 21
2033.482558850018
 31
0.0
  0
LINE
  5
333
330
2C4
100
AcDbEntity
  8
P-SANR-FIXT
100
AcDbLine
 10
1071.981004360599
 20
2033.482558850018
 30
0.0
 11
1076.104109986179
 21
2033.482558850018
 31
0.0
  0
LINE
  5
334
330
2C4
100
AcDbEntity
  8
P-SANR-FIXT
100
AcDbLine
 10
1076.104109986179
 20
2033.482558850018
 30
0.0
 11
1076.114353943096
 21
2033.482558850018
 31
0.0
  0
LINE
  5
335
330
2C4
100
AcDbEntity
  8
P-SANR-FIXT
100
AcDbLine
 10
1058.124597900014
 20
2029.982558850009
 30
0.0
 11
1058.124597900014
 21
2033.482558850018
 31
0.0
  0
LINE
  5
336
330
2C4
100
AcDbEntity
  8
P-SANR-FIXT
100
AcDbLine
 10
1062.247703525595
 20
2029.982558850009
 30
0.0
 11
1062.247703525595
 21
2033.482558850018
 31
0.0
  0
LINE
  5
337
330
2C4
100
AcDbEntity
  8
P-SANR-FIXT
100
AcDbLine
 10
1062.991248317515
 20
2029.982558850009
 30
0.0
 11
1062.991248317515
 21
2033.482558850018
 31
0.0
  0
LINE
  5
338
330
2C4
100
AcDbEntity
  8
P-SANR-FIXT
100
AcDbLine
 10
1071.237459568677
 20
2029.982558850009
 30
0.0
 11
1071.237459568677
 21
2033.482558850018
 31
0.0
  0
LINE
  5
339
330
2C4
100
AcDbEntity
  8
P-SANR-FIXT
100
AcDbLine
 10
1071.981004360599
 20
2029.982558850009
 30
0.0
 11
1071.981004360599
 21
2033.482558850018
 31
0.0
  0
LINE
  5
33A
330
2C4
100
AcDbEntity
  8
P-SANR-FIXT
100
AcDbLine
 10
1076.104109986179
 20
2029.982558850009
 30
0.0
 11
1076.104109986179
 21
2033.482558850018
 31
0.0
  0
LINE
  5
33B
330
2C4
100
AcDbEntity
  8
P-SANR-FIXT
100
AcDbLine
 10
1081.836785807432
 20
1913.004384256892
 30
0.0
 11
1074.475569875264
 21
1922.019995717025
 31
0.0
  0
LINE
  5
33C
330
2C4
100
AcDbEntity
  8
P-SANR-FIXT
100
AcDbLine
 10
1074.475569875264
 20
1922.019995717025
 30
0.0
 11
1059.753138010929
 21
1922.019995717025
 31
0.0
  0
LINE
  5
33D
330
2C4
100
AcDbEntity
  8
P-SANR-FIXT
100
AcDbLine
 10
1059.753138010929
 20
1922.019995717025
 30
0.0
 11
1052.391922078761
 21
1913.004384256892
 31
0.0
  0
LINE
  5
33E
330
2C4
100
AcDbEntity
  8
P-SANR-FIXT
100
AcDbLine
 10
1052.391922078761
 20
1913.004384256892
 30
0.0
 11
1054.720297202676
 21
1910.1527187652
 31
0.0
  0
LINE
  5
33F
330
2C4
100
AcDbEntity
  8
P-SANR-FIXT
100
AcDbLine
 10
1059.589826396476
 20
1904.188787858999
 30
0.0
 11
1059.753138010928
 21
1903.988772796759
 31
0.0
  0
LINE
  5
340
330
2C4
100
AcDbEntity
  8
P-SANR-FIXT
100
AcDbLine
 10
1059.753138010928
 20
1903.988772796759
 30
0.0
 11
1059.908025154285
 21
1903.988772796759
 31
0.0
  0
LINE
  5
341
330
2C4
100
AcDbEntity
  8
P-SANR-FIXT
100
AcDbLine
 10
1074.320682732502
 20
1903.988772796759
 30
0.0
 11
1074.475569875264
 21
1903.988772796759
 31
0.0
  0
LINE
  5
342
330
2C4
100
AcDbEntity
  8
P-SANR-FIXT
100
AcDbLine
 10
1074.475569875264
 20
1903.988772796759
 30
0.0
 11
1074.63888148971
 21
1904.188787858991
 31
0.0
  0
LINE
  5
343
330
2C4
100
AcDbEntity
  8
P-SANR-FIXT
100
AcDbLine
 10
1079.508410683526
 20
1910.152718765211
 30
0.0
 11
1081.836785807432
 21
1913.004384256892
 31
0.0
  0
LINE
  5
344
330
2C4
100
AcDbEntity
  8
P-SANR-FIXT
100
AcDbLine
 10
1081.836785807432
 20
1913.004384256892
 30
0.0
 11
1081.836785807432
 21
1918.307685115854
 31
0.0
  0
LINE
  5
345
330
2C4
100
AcDbEntity
  8
P-SANR-FIXT
100
AcDbLine
 10
1081.836785807432
 20
1918.307685115854
 30
0.0
 11
1074.475569875264
 21
1927.323296575982
 31
0.0
  0
LINE
  5
346
330
2C4
100
AcDbEntity
  8
P-SANR-FIXT
100
AcDbLine
 10
1074.475569875264
 20
1927.323296575986
 30
0.0
 11
1074.475569875264
 21
1922.019995717025
 31
0.0
  0
LINE
  5
347
330
2C4
100
AcDbEntity
  8
P-SANR-FIXT
100
AcDbLine
 10
1074.475569875264
 20
1927.323296575982
 30
0.0
 11
1067.114353943096
 21
1927.323296575982
 31
0.0
  0
LINE
  5
348
330
2C4
100
AcDbEntity
  8
P-SANR-FIXT
100
AcDbLine
 10
1067.114353943096
 20
1927.323296575982
 30
0.0
 11
1059.753138010929
 21
1927.323296575982
 31
0.0
  0
LINE
  5
349
330
2C4
100
AcDbEntity
  8
P-SANR-FIXT
100
AcDbLine
 10
1059.753138010929
 20
1927.323296575986
 30
0.0
 11
1059.753138010929
 21
1922.019995717025
 31
0.0
  0
LINE
  5
34A
330
2C4
100
AcDbEntity
  8
P-SANR-FIXT
100
AcDbLine
 10
1059.753138010929
 20
1927.323296575982
 30
0.0
 11
1052.391922078761
 21
1918.307685115854
 31
0.0
  0
LINE
  5
34B
330
2C4
100
AcDbEntity
  8
P-SANR-FIXT
100
AcDbLine
 10
1052.391922078761
 20
1918.307685115854
 30
0.0
 11
1052.391922078761
 21
1913.004384256892
 31
0.0
  0
ELLIPSE
  5
34C
330
2C4
100
AcDbEntity
  8
P-SANR-FIXT
100
AcDbEllipse
 10
1067.114353943096
 20
1920.782558849972
 30
0.0
 11
27.00000000001364
 21
0.0
 31
0.0
210
0.0
220
0.0
230
0.9999999999999998
 40
0.707106781186554
 41
1.570796326794896
 42
3.141592653589793
  0
ELLIPSE
  5
34D
330
2C4
100
AcDbEntity
  8
P-SANR-FIXT
100
AcDbEllipse
 10
1067.114353943096
 20
1918.661238506413
 30
0.0
 11
15.35335501156464
 21
0.0
 31
0.0
210
0.0
220
0.0
230
1.0
 40
0.7071067811865479
 41
5.99675610323233
 42
7.853981633974482
  0
ELLIPSE
  5
34E
330
2C4
100
AcDbEntity
  8
P-SANR-FIXT
100
AcDbEllipse
 10
1067.114353943096
 20
1918.307685115844
 30
0.0
 11
14.72243186433746
 21
0.0
 31
0.0
210
0.0
220
0.0
230
0.9999999999999998
 40
0.70710678118653
 41
1.047197551197042
 42
1.570796326794881
  0
ELLIPSE
  5
34F
330
2C4
100
AcDbEntity
  8
P-SANR-FIXT
100
AcDbEllipse
 10
1067.114353943096
 20
1918.307685115849
 30
0.0
 11
-14.72243186434662
 21
0.0000000000001938
 31
0.0
210
0.0
220
0.0
230
1.0
 40
0.7071067811865442
 41
3.141592653590724
 42
4.18879020478685
  0
ELLIPSE
  5
350
330
2C4
100
AcDbEntity
  8
P-SANR-FIXT
100
AcDbEllipse
 10
1067.114353943096
 20
1918.307685115843
 30
0.0
 11
14.7224318643361
 21
0.0
 31
0.0
210
0.0
220
0.0
230
1.0
 40
0.7071067811865452
 41
2.094395102392714
 42
3.141592653588832
  0
ELLIPSE
  5
351
330
2C4
100
AcDbEntity
  8
P-SANR-FIXT
100
AcDbEllipse
 10
1067.114353943096
 20
1918.307685115849
 30
0.0
 11
14.72243186434662
 21
0.0
 31
0.0
210
0.0
220
0.0
230
1.0
 40
0.7071067811865442
 41
1.570796326794896
 42
2.094395102392716
  0
ENDBLK
  5
353
330
2C4
100
AcDbEntity
  8
0
100
AcDbBlockEnd
  0
ENDSEC
  0
SECTION
  2
ENTITIES
  0
INSERT
  5
165
330
71
100
AcDbEntity
  8
P-SANR-FIXT
100
AcDbBlockReference
  2
Automatic flow rate regulator valve_Caleffi_121 DN15 - 1_2__-859151-Est - Idraulica
 10
0.0
 20
0.0
 30
0.0
1001
REVIT
1002
{
1070
     1
1000
863131
1002
}
1002
{
1070
     5
1000
859151
1002
}
1002
{
1070
     2
1000
-2001160
1002
}
  0
INSERT
  5
2C3
330
71
100
AcDbEntity
  8
P-SANR-FIXT
100
AcDbBlockReference
  2
Automatic flow rate regulator valve_Caleffi_121 DN15 - 1_2__-V1-Est - Idraulica
 10
0.0
 20
0.0
 30
0.0
1001
REVIT
1002
{
1070
     1
1000
863152
1002
}
1002
{
1070
     5
1000
859151
1002
}
1002
{
1070
     2
1000
-2001160
1002
}
  0
INSERT
  5
354
330
71
100
AcDbEntity
  8
P-SANR-FIXT
100
AcDbBlockReference
  2
Automatic flow rate regulator valve_Caleffi_121 DN15 - 1_2__-V2-Est - Idraulica
 10
0.0
 20
0.0
 30
0.0
1001
REVIT
1002
{
1070
     1
1000
863172
1002
}
1002
{
1070
     5
1000
859151
1002
}
1002
{
1070
     2
1000
-2001160
1002
}
  0
ENDSEC
  0
SECTION
  2
OBJECTS
  0
DICTIONARY
  5
C
330
0
100
AcDbDictionary
281
     1
  3
ACAD_CIP_PREVIOUS_PRODUCT_INFO
350
7A
  3
ACAD_COLOR
350
63
  3
ACAD_DETAILVIEWSTYLE
350
6B
  3
ACAD_GROUP
350
D
  3
ACAD_IMAGE_VARS
350
7B
  3
ACAD_LAYOUT
350
62
  3
ACAD_MATERIAL
350
10
  3
ACAD_MLEADERSTYLE
350
66
  3
ACAD_MLINESTYLE
350
5F
  3
ACAD_PLOTSETTINGS
350
61
  3
ACAD_PLOTSTYLENAME
350
E
  3
ACAD_SCALELIST
350
42
  3
ACAD_SECTIONVIEWSTYLE
350
68
  3
ACAD_TABLESTYLE
350
64
  3
ACAD_VISUALSTYLE
350
29
  3
ACDB_RECOMPOSE_DATA
350
35F
  3
AcDbVariableDictionary
350
7C
  3
REVIT_DICTIONARY
350
356
  0
DICTIONARY
  5
35B
330
71
100
AcDbDictionary
280
     1
281
     1
  3
ACAD_SORTENTS
360
35C
  0
XRECORD
  5
7A
102
{ACAD_REACTORS
330
C
102
}
330
C
100
AcDbXrecord
280
     1
300
RVT
300
2013
300
RVT2013
  0
DICTIONARY
  5
63
102
{ACAD_REACTORS
330
C
102
}
330
C
100
AcDbDictionary
281
     1
  0
DICTIONARY
  5
6B
102
{ACAD_REACTORS
330
C
102
}
330
C
100
AcDbDictionary
281
     1
  3
Imperial24
350
6C
  0
DICTIONARY
  5
D
102
{ACAD_REACTORS
330
C
102
}
330
C
100
AcDbDictionary
281
     1
  0
RASTERVARIABLES
  5
7B
102
{ACAD_REACTORS
330
C
102
}
330
C
100
AcDbRasterVariables
 90
        0
 70
     0
 71
     1
 72
     1
  0
DICTIONARY
  5
62
102
{ACAD_REACTORS
330
C
102
}
330
C
100
AcDbDictionary
281
     1
  3
Layout1
350
70
  3
Layout2
350
78
  3
Model
350
74
  0
DICTIONARY
  5
10
102
{ACAD_REACTORS
330
C
102
}
330
C
100
AcDbDictionary
281
     1
  3
ByBlock
350
19
  3
ByLayer
350
11
  3
Global
350
21
  0
DICTIONARY
  5
66
102
{ACAD_REACTORS
330
C
102
}
330
C
100
AcDbDictionary
281
     1
  3
Standard
350
67
  0
DICTIONARY
  5
5F
102
{ACAD_REACTORS
330
C
102
}
330
C
100
AcDbDictionary
281
     1
  3
Standard
350
60
  0
DICTIONARY
  5
61
102
{ACAD_REACTORS
330
C
102
}
330
C
100
AcDbDictionary
281
     1
  0
ACDBDICTIONARYWDFLT
  5
E
102
{ACAD_REACTORS
330
C
102
}
330
C
100
AcDbDictionary
281
     1
  3
Normal
350
F
100
AcDbDictionaryWithDefault
340
F
  0
DICTIONARY
  5
42
102
{ACAD_REACTORS
330
C
102
}
330
C
100
AcDbDictionary
281
     1
  3
A0
350
43
  3
A1
350
44
  3
A2
350
45
  3
A3
350
46
  3
A4
350
47
  3
A5
350
48
  3
A6
350
49
  3
A7
350
4A
  3
A8
350
4B
  3
A9
350
4C
  3
B0
350
4D
  3
B1
350
4E
  3
B2
350
4F
  3
B3
350
50
  3
B4
350
51
  3
B5
350
52
  3
B6
350
53
  0
DICTIONARY
  5
68
102
{ACAD_REACTORS
330
C
102
}
330
C
100
AcDbDictionary
281
     1
  3
Imperial24
350
6A
  0
DICTIONARY
  5
64
102
{ACAD_REACTORS
330
C
102
}
330
C
100
AcDbDictionary
281
     1
  3
Standard
350
65
  0
DICTIONARY
  5
29
102
{ACAD_REACTORS
330
C
102
}
330
C
100
AcDbDictionary
281
     1
  3
2dWireframe
350
2F
  3
Basic
350
2E
  3
Brighten
350
35
  3
ColorChange
350
39
  3
Conceptual
350
32
  3
Dim
350
34
  3
EdgeColorOff
350
41
  3
Facepattern
350
38
  3
Flat
350
2A
  3
FlatWithEdges
350
2B
  3
Gouraud
350
2C
  3
GouraudWithEdges
350
2D
  3
Hidden
350
31
  3
JitterOff
350
3F
  3
Linepattern
350
37
  3
OverhangOff
350
40
  3
Realistic
350
33
  3
Shaded
350
3E
  3
Shaded with edges
350
3D
  3
Shades of Gray
350
3A
  3
Sketchy
350
3B
  3
Thicken
350
36
  3
Wireframe
350
30
  3
X-Ray
350
3C
  0
XRECORD
  5
35F
102
{ACAD_REACTORS
330
C
102
}
330
C
100
AcDbXrecord
280
     1
 90
        1
330
65
  0
DICTIONARY
  5
7C
102
{ACAD_REACTORS
330
C
102
}
330
C
100
AcDbDictionary
281
     1
  3
CANNOSCALE
350
81
  3
CMLEADERSTYLE
350
7E
  3
CTABLESTYLE
350
7D
  3
CVIEWDETAILSTYLE
350
7F
  3
CVIEWSECTIONSTYLE
350
80
  0
DICTIONARY
  5
356
102
{ACAD_REACTORS
330
C
102
}
330
C
100
AcDbDictionary
281
     1
  3
DRAWING_TOOL
350
35A
  3
REVIT_CATEGORY_MAPPING
350
358
  3
REVIT_SUB_CATEGORY_MAPPING
350
359
  3
REVIT_TYPE_MAPPING
350
357
  0
SORTENTSTABLE
  5
35C
102
{ACAD_REACTORS
330
35B
102
}
330
35B
100
AcDbSortentsTable
330
71
  0
ACDBDETAILVIEWSTYLE
  5
6C
102
{ACAD_REACTORS
330
6B
102
}
330
6B
100
AcDbModelDocViewStyle
 70
     0
  3
Imperial24
290
     1
100
AcDbDetailViewStyle
 70
     0
 71
     0
 90
        3
 71
     1
340
55
 62
   256
 40
0.24
340
0
 62
   256
 40
0.24
300

 40
0.36
280
     3
 71
     2
340
5D
 90
       25
 62
   256
 71
     3
340
55
 62
   256
 40
0.24
 90
        1
 40
0.75
 90
        1
300
%<\AcVar ViewType \f "%tc1">% %<\AcVar ViewDetailId>%\PSCALA %<\AcVar ViewScale \f "%sn">%
 71
     4
340
5D
 90
       25
 62
   256
340
5D
 90
       25
 62
   256
280
     0
  0
LAYOUT
  5
70
102
{ACAD_REACTORS
330
62
102
}
330
62
100
AcDbPlotSettings
  1

  2

  4

  6

 40
0.0
 41
0.0
 42
0.0
 43
0.0
 44
0.0
 45
0.0
 46
0.0
 47
0.0
 48
0.0
 49
0.0
140
0.0
141
0.0
142
1.0
143
1.0
 70
   688
 72
     0
 73
     0
 74
     5
  7

 75
    16
147
1.0
 76
     0
 77
     2
 78
   300
148
0.0
149
0.0
100
AcDbLayout
  1
Layout1
 70
     1
 71
     1
 10
0.0
 20
0.0
 11
12.0
 21
9.0
 12
0.0
 22
0.0
 32
0.0
 14
0.0
 24
0.0
 34
0.0
 15
0.0
 25
0.0
 35
0.0
146
0.0
 13
0.0
 23
0.0
 33
0.0
 16
1.0
 26
0.0
 36
0.0
 17
0.0
 27
1.0
 37
0.0
 76
     0
330
6D
  0
LAYOUT
  5
78
102
{ACAD_REACTORS
330
62
102
}
330
62
100
AcDbPlotSettings
  1

  2

  4

  6

 40
0.0
 41
0.0
 42
0.0
 43
0.0
 44
0.0
 45
0.0
 46
0.0
 47
0.0
 48
0.0
 49
0.0
140
0.0
141
0.0
142
1.0
143
1.0
 70
   688
 72
     0
 73
     0
 74
     5
  7

 75
    16
147
1.0
 76
     0
 77
     2
 78
   300
148
0.0
149
0.0
100
AcDbLayout
  1
Layout2
 70
     1
 71
     2
 10
0.0
 20
0.0
 11
12.0
 21
9.0
 12
0.0
 22
0.0
 32
0.0
 14
0.0
 24
0.0
 34
0.0
 15
0.0
 25
0.0
 35
0.0
146
0.0
 13
0.0
 23
0.0
 33
0.0
 16
1.0
 26
0.0
 36
0.0
 17
0.0
 27
1.0
 37
0.0
 76
     0
330
75
  0
LAYOUT
  5
74
102
{ACAD_REACTORS
330
62
102
}
330
62
100
AcDbPlotSettings
  1

  2

  4

  6

 40
0.0
 41
0.0
 42
0.0
 43
0.0
 44
0.0
 45
0.0
 46
0.0
 47
0.0
 48
0.0
 49
0.0
140
0.0
141
0.0
142
1.0
143
1.0
 70
  1712
 72
     0
 73
     0
 74
     0
  7

 75
     0
147
1.0
 76
     0
 77
     2
 78
   300
148
0.0
149
0.0
100
AcDbLayout
  1
Model
 70
     1
 71
     0
 10
0.0
 20
0.0
 11
12.0
 21
9.0
 12
0.0
 22
0.0
 32
0.0
 14
0.0
 24
0.0
 34
0.0
 15
0.0
 25
0.0
 35
0.0
146
0.0
 13
0.0
 23
0.0
 33
0.0
 16
1.0
 26
0.0
 36
0.0
 17
0.0
 27
1.0
 37
0.0
 76
     0
330
71
  0
MATERIAL
  5
19
102
{ACAD_XDICTIONARY
360
1A
102
}
102
{ACAD_REACTORS
330
10
102
}
330
10
100
AcDbMaterial
  1
ByBlock
 72
     0
 43
0.0208333333333333
 43
0.0
 43
0.0
 43
0.0
 43
0.0
 43
0.0208333333333333
 43
0.0
 43
0.0
 43
0.0
 43
0.0
 43
1.0
 43
0.0
 43
0.0
 43
0.0
 43
0.0
 43
1.0
 77
     0
 47
0.0208333333333333
 47
0.0
 47
0.0
 47
0.0
 47
0.0
 47
0.0208333333333333
 47
0.0
 47
0.0
 47
0.0
 47
0.0
 47
1.0
 47
0.0
 47
0.0
 47
0.0
 47
0.0
 47
1.0
171
     0
 49
0.0208333333333333
 49
0.0
 49
0.0
 49
0.0
 49
0.0
 49
0.0208333333333333
 49
0.0
 49
0.0
 49
0.0
 49
0.0
 49
1.0
 49
0.0
 49
0.0
 49
0.0
 49
0.0
 49
1.0
175
     0
142
0.0208333333333333
142
0.0
142
0.0
142
0.0
142
0.0
142
0.0208333333333333
142
0.0
142
0.0
142
0.0
142
0.0
142
1.0
142
0.0
142
0.0
142
0.0
142
0.0
142
1.0
179
     0
144
0.0208333333333333
144
0.0
144
0.0
144
0.0
144
0.0
144
0.0208333333333333
144
0.0
144
0.0
144
0.0
144
0.0
144
1.0
144
0.0
144
0.0
144
0.0
144
0.0
144
1.0
147
0.0208333333333333
147
0.0
147
0.0
147
0.0
147
0.0
147
0.0208333333333333
147
0.0
147
0.0
147
0.0
147
0.0
147
1.0
147
0.0
147
0.0
147
0.0
147
0.0
147
1.0
  0
MATERIAL
  5
11
102
{ACAD_XDICTIONARY
360
12
102
}
102
{ACAD_REACTORS
330
10
102
}
330
10
100
AcDbMaterial
  1
ByLayer
 72
     0
 43
0.0208333333333333
 43
0.0
 43
0.0
 43
0.0
 43
0.0
 43
0.0208333333333333
 43
0.0
 43
0.0
 43
0.0
 43
0.0
 43
1.0
 43
0.0
 43
0.0
 43
0.0
 43
0.0
 43
1.0
 77
     0
 47
0.0208333333333333
 47
0.0
 47
0.0
 47
0.0
 47
0.0
 47
0.0208333333333333
 47
0.0
 47
0.0
 47
0.0
 47
0.0
 47
1.0
 47
0.0
 47
0.0
 47
0.0
 47
0.0
 47
1.0
171
     0
 49
0.0208333333333333
 49
0.0
 49
0.0
 49
0.0
 49
0.0
 49
0.0208333333333333
 49
0.0
 49
0.0
 49
0.0
 49
0.0
 49
1.0
 49
0.0
 49
0.0
 49
0.0
 49
0.0
 49
1.0
175
     0
142
0.0208333333333333
142
0.0
142
0.0
142
0.0
142
0.0
142
0.0208333333333333
142
0.0
142
0.0
142
0.0
142
0.0
142
1.0
142
0.0
142
0.0
142
0.0
142
0.0
142
1.0
179
     0
144
0.0208333333333333
144
0.0
144
0.0
144
0.0
144
0.0
144
0.0208333333333333
144
0.0
144
0.0
144
0.0
144
0.0
144
1.0
144
0.0
144
0.0
144
0.0
144
0.0
144
1.0
147
0.0208333333333333
147
0.0
147
0.0
147
0.0
147
0.0
147
0.0208333333333333
147
0.0
147
0.0
147
0.0
147
0.0
147
1.0
147
0.0
147
0.0
147
0.0
147
0.0
147
1.0
  0
MATERIAL
  5
21
102
{ACAD_XDICTIONARY
360
22
102
}
102
{ACAD_REACTORS
330
10
102
}
330
10
100
AcDbMaterial
  1
Global
 72
     0
 43
0.0208333333333333
 43
0.0
 43
0.0
 43
0.0
 43
0.0
 43
0.0208333333333333
 43
0.0
 43
0.0
 43
0.0
 43
0.0
 43
1.0
 43
0.0
 43
0.0
 43
0.0
 43
0.0
 43
1.0
 77
     0
 47
0.0208333333333333
 47
0.0
 47
0.0
 47
0.0
 47
0.0
 47
0.0208333333333333
 47
0.0
 47
0.0
 47
0.0
 47
0.0
 47
1.0
 47
0.0
 47
0.0
 47
0.0
 47
0.0
 47
1.0
171
     0
 49
0.0208333333333333
 49
0.0
 49
0.0
 49
0.0
 49
0.0
 49
0.0208333333333333
 49
0.0
 49
0.0
 49
0.0
 49
0.0
 49
1.0
 49
0.0
 49
0.0
 49
0.0
 49
0.0
 49
1.0
175
     0
142
0.0208333333333333
142
0.0
142
0.0
142
0.0
142
0.0
142
0.0208333333333333
142
0.0
142
0.0
142
0.0
142
0.0
142
1.0
142
0.0
142
0.0
142
0.0
142
0.0
142
1.0
179
     0
144
0.0208333333333333
144
0.0
144
0.0
144
0.0
144
0.0
144
0.0208333333333333
144
0.0
144
0.0
144
0.0
144
0.0
144
1.0
144
0.0
144
0.0
144
0.0
144
0.0
144
1.0
147
0.0208333333333333
147
0.0
147
0.0
147
0.0
147
0.0
147
0.0208333333333333
147
0.0
147
0.0
147
0.0
147
0.0
147
1.0
147
0.0
147
0.0
147
0.0
147
0.0
147
1.0
  0
MLEADERSTYLE
  5
67
102
{ACAD_REACTORS
330
66
102
}
330
66
100
AcDbMLeaderStyle
179
     2
170
     2
171
     1
172
     0
 90
        2
 40
0.0
 41
0.0
173
     1
 91
-1056964608
340
5B
 92
       -2
290
     1
 42
0.09
291
     1
 43
0.36
  3
Standard
 44
0.18
300

342
55
174
     1
178
     6
175
     1
176
     0
 93
-1056964608
 45
0.18
292
     0
297
     0
 46
0.18
 94
-1056964608
 47
1.0
 49
1.0
140
1.0
293
     1
141
0.0
294
     1
177
     0
142
1.0
295
     1
296
     0
143
0.125
271
     0
272
     9
273
     9
298
     1
  0
MLINESTYLE
  5
60
102
{ACAD_REACTORS
330
5F
102
}
330
5F
100
AcDbMlineStyle
  2
STANDARD
 70
     0
  3

 62
   256
 51
90.0
 52
90.0
 71
     2
 49
0.5
 62
   256
  6
BYLAYER
 49
-0.5
 62
   256
  6
BYLAYER
  0
ACDBPLACEHOLDER
  5
F
102
{ACAD_REACTORS
330
E
102
}
330
E
  0
SCALE
  5
43
102
{ACAD_REACTORS
330
42
102
}
330
42
100
AcDbScale
 70
     0
300
1:1
140
1.0
141
1.0
290
     1
  0
SCALE
  5
44
102
{ACAD_REACTORS
330
42
102
}
330
42
100
AcDbScale
 70
     0
300
1/128" = 1'-0"
140
0.0078125
141
12.0
290
     0
  0
SCALE
  5
45
102
{ACAD_REACTORS
330
42
102
}
330
42
100
AcDbScale
 70
     0
300
1/64" = 1'-0"
140
0.015625
141
12.0
290
     0
  0
SCALE
  5
46
102
{ACAD_REACTORS
330
42
102
}
330
42
100
AcDbScale
 70
     0
300
1/32" = 1'-0"
140
0.03125
141
12.0
290
     0
  0
SCALE
  5
47
102
{ACAD_REACTORS
330
42
102
}
330
42
100
AcDbScale
 70
     0
300
1/16" = 1'-0"
140
0.0625
141
12.0
290
     0
  0
SCALE
  5
48
102
{ACAD_REACTORS
330
42
102
}
330
42
100
AcDbScale
 70
     0
300
3/32" = 1'-0"
140
0.09375
141
12.0
290
     0
  0
SCALE
  5
49
102
{ACAD_REACTORS
330
42
102
}
330
42
100
AcDbScale
 70
     0
300
1/8" = 1'-0"
140
0.125
141
12.0
290
     0
  0
SCALE
  5
4A
102
{ACAD_REACTORS
330
42
102
}
330
42
100
AcDbScale
 70
     0
300
3/16" = 1'-0"
140
0.1875
141
12.0
290
     0
  0
SCALE
  5
4B
102
{ACAD_REACTORS
330
42
102
}
330
42
100
AcDbScale
 70
     0
300
1/4" = 1'-0"
140
0.25
141
12.0
290
     0
  0
SCALE
  5
4C
102
{ACAD_REACTORS
330
42
102
}
330
42
100
AcDbScale
 70
     0
300
3/8" = 1'-0"
140
0.375
141
12.0
290
     0
  0
SCALE
  5
4D
102
{ACAD_REACTORS
330
42
102
}
330
42
100
AcDbScale
 70
     0
300
1/2" = 1'-0"
140
0.5
141
12.0
290
     0
  0
SCALE
  5
4E
102
{ACAD_REACTORS
330
42
102
}
330
42
100
AcDbScale
 70
     0
300
3/4" = 1'-0"
140
0.75
141
12.0
290
     0
  0
SCALE
  5
4F
102
{ACAD_REACTORS
330
42
102
}
330
42
100
AcDbScale
 70
     0
300
1" = 1'-0"
140
1.0
141
12.0
290
     0
  0
SCALE
  5
50
102
{ACAD_REACTORS
330
42
102
}
330
42
100
AcDbScale
 70
     0
300
1-1/2" = 1'-0"
140
1.5
141
12.0
290
     0
  0
SCALE
  5
51
102
{ACAD_REACTORS
330
42
102
}
330
42
100
AcDbScale
 70
     0
300
3" = 1'-0"
140
3.0
141
12.0
290
     0
  0
SCALE
  5
52
102
{ACAD_REACTORS
330
42
102
}
330
42
100
AcDbScale
 70
     0
300
6" = 1'-0"
140
6.0
141
12.0
290
     0
  0
SCALE
  5
53
102
{ACAD_REACTORS
330
42
102
}
330
42
100
AcDbScale
 70
     0
300
1'-0" = 1'-0"
140
12.0
141
12.0
290
     0
  0
ACDBSECTIONVIEWSTYLE
  5
6A
102
{ACAD_REACTORS
330
68
102
}
330
68
100
AcDbModelDocViewStyle
 70
     0
  3
Imperial24
290
     1
100
AcDbSectionViewStyle
 70
     0
 71
     0
 90
       78
 71
     1
340
55
 62
   256
 40
0.24
340
0
340
0
 62
   256
 40
0.24
300
I, O, Q, S, X, Z
 40
0.48
 90
        3
 40
0.18
 90
        1
 71
     2
340
69
 90
       25
 62
   256
340
5D
 90
       50
 62
   256
 40
0.24
 40
0.0
 40
0.24
 71
     3
340
55
 62
   256
 40
0.24
 90
        1
 40
0.75
 90
        1
300
%<\AcVar ViewType \f "%tc1">% %<\AcVar ViewSectionStartId>%-%<\AcVar ViewSectionEndId>%\PSCALA %<\AcVar ViewScale \f "%sn">%
 71
     4
 62
   256
 62
   257
300
ANSI31
 40
1.0
 90
        0
290
     0
290
     0
 90
        6
 40
0.0
 40
1.570796326794896
 40
0.2617993877991494
 40
1.308996938995747
 40
-0.2617993877991494
 40
1.832595714594046
  0
TABLESTYLE
  5
65
102
{ACAD_XDICTIONARY
360
35D
102
}
102
{ACAD_REACTORS
330
64
102
}
330
64
100
AcDbTableStyle
280
     0
  3
Standard
 70
     0
 71
     0
 40
0.06
 41
0.06
280
     0
281
     0
  7
Standard
140
0.18
170
     2
 62
     0
 63
     7
283
     0
 90
      512
 91
        0
  1

274
    -2
284
     1
 64
     0
275
    -2
285
     1
 65
     0
276
    -2
286
     1
 66
     0
277
    -2
287
     1
 67
     0
278
    -2
288
     1
 68
     0
279
    -2
289
     1
 69
     0
  7
Standard
140
0.25
170
     5
 62
     0
 63
     7
283
     0
 90
      512
 91
        0
  1

274
    -2
284
     1
 64
     0
275
    -2
285
     1
 65
     0
276
    -2
286
     1
 66
     0
277
    -2
287
     1
 67
     0
278
    -2
288
     1
 68
     0
279
    -2
289
     1
 69
     0
  7
Standard
140
0.18
170
     5
 62
     0
 63
     7
283
     0
 90
      512
 91
        0
  1

274
    -2
284
     1
 64
     0
275
    -2
285
     1
 65
     0
276
    -2
286
     1
 66
     0
277
    -2
287
     1
 67
     0
278
    -2
288
     1
 68
     0
279
    -2
289
     1
 69
     0
  0
VISUALSTYLE
  5
2F
102
{ACAD_REACTORS
330
29
102
}
330
29
100
AcDbVisualStyle
  2
2dWireframe
 70
     4
177
     3
291
     0
 70
    58
 90
        0
176
     1
 90
        2
176
     1
 90
        0
176
     1
 90
        0
176
     1
 40
0.6
176
     1
 40
30.0
176
     1
 62
     7
420
 16777215
176
     1
 90
        1
176
     1
 90
        4
176
     1
 62
     7
176
     1
 62
   257
176
     1
 90
        1
176
     1
 90
        1
176
     1
 40
1.0
176
     1
 90
        0
176
     1
 62
   257
176
     1
 40
1.0
176
     1
 90
        1
176
     1
 90
        6
176
     1
 90
        2
176
     1
 62
     7
176
     1
 90
        5
176
     1
 90
        0
176
     1
 90
        0
176
     1
290
     0
176
     1
 90
        1
176
     1
 40
0.0
176
     1
 90
        0
176
     1
290
     1
176
     1
290
     1
176
     1
290
     0
176
     1
290
     0
176
     1
290
     0
176
     1
290
     0
176
     1
290
     0
176
     1
290
     0
176
     1
290
     0
176
     1
 90
       50
176
     1
 40
0.0
176
     1
 40
1.0
176
     1
 90
        0
176
     1
 62
    18
420
        0
176
     1
 90
       50
176
     1
 90
        3
176
     1
 62
     5
420
      255
176
     1
290
     0
176
     1
 90
       50
176
     1
 90
       50
176
     1
 90
       50
176
     1
290
     0
176
     1
 90
       50
176
     1
 62
   256
176
     0
 40
1.0
176
     0
 90
        2
176
     1
  1
strokes_ogs.tif
176
     1
290
     0
176
     1
 40
1.0
176
     1
 40
1.0
176
     1
  0
VISUALSTYLE
  5
2E
102
{ACAD_REACTORS
330
29
102
}
330
29
100
AcDbVisualStyle
  2
Basic
 70
     7
177
     3
291
     1
 70
    58
 90
        1
176
     1
 90
        0
176
     1
 90
        1
176
     1
 90
        0
176
     1
 40
0.6
176
     1
 40
30.0
176
     1
 62
     7
420
 16777215
176
     1
 90
        0
176
     1
 90
        4
176
     1
 62
     7
176
     1
 62
   257
176
     1
 90
        1
176
     1
 90
        1
176
     1
 40
1.0
176
     1
 90
        8
176
     1
 62
     7
176
     1
 40
1.0
176
     1
 90
        1
176
     1
 90
        6
176
     1
 90
        2
176
     1
 62
     7
176
     1
 90
        5
176
     1
 90
        0
176
     1
 90
        0
176
     1
290
     0
176
     1
 90
        1
176
     1
 40
0.0
176
     1
 90
        0
176
     1
290
     0
176
     1
290
     1
176
     1
290
     1
176
     1
290
     0
176
     1
290
     0
176
     1
290
     0
176
     1
290
     0
176
     1
290
     0
176
     1
290
     0
176
     1
 90
       50
176
     1
 40
0.0
176
     1
 40
1.0
176
     1
 90
        0
176
     1
 62
    18
420
        0
176
     1
 90
       50
176
     1
 90
        3
176
     1
 62
     5
420
      255
176
     1
290
     0
176
     1
 90
       50
176
     1
 90
       50
176
     1
 90
       50
176
     1
290
     0
176
     1
 90
       50
176
     1
 62
   256
176
     0
 40
1.0
176
     0
 90
        2
176
     1
  1
strokes_ogs.tif
176
     1
290
     0
176
     1
 40
1.0
176
     1
 40
1.0
176
     1
  0
VISUALSTYLE
  5
35
102
{ACAD_REACTORS
330
29
102
}
330
29
100
AcDbVisualStyle
  2
Brighten
 70
    12
177
     3
291
     1
 70
    58
 90
        2
176
     1
 90
        2
176
     1
 90
        0
176
     1
 90
        0
176
     1
 40
0.6
176
     1
 40
30.0
176
     1
 62
     7
420
 16777215
176
     1
 90
        1
176
     1
 90
        4
176
     1
 62
     7
176
     1
 62
   257
176
     1
 90
        1
176
     1
 90
        1
176
     1
 40
1.0
176
     1
 90
        8
176
     1
 62
     7
176
     1
 40
1.0
176
     1
 90
        1
176
     1
 90
        6
176
     1
 90
        2
176
     1
 62
     7
176
     1
 90
        5
176
     1
 90
        0
176
     1
 90
        0
176
     1
290
     0
176
     1
 90
        1
176
     1
 40
50.0
176
     1
 90
        0
176
     1
290
     0
176
     1
290
     1
176
     1
290
     1
176
     1
290
     0
176
     1
290
     0
176
     1
290
     0
176
     1
290
     0
176
     1
290
     0
176
     1
290
     0
176
     1
 90
       50
176
     1
 40
0.0
176
     1
 40
1.0
176
     1
 90
        0
176
     1
 62
    18
420
        0
176
     1
 90
       50
176
     1
 90
        3
176
     1
 62
     5
420
      255
176
     1
290
     0
176
     1
 90
       50
176
     1
 90
       50
176
     1
 90
       50
176
     1
290
     0
176
     1
 90
       50
176
     1
 62
   256
176
     0
 40
1.0
176
     0
 90
        2
176
     1
  1
strokes_ogs.tif
176
     1
290
     0
176
     1
 40
1.0
176
     1
 40
1.0
176
     1
  0
VISUALSTYLE
  5
39
102
{ACAD_REACTORS
330
29
102
}
330
29
100
AcDbVisualStyle
  2
ColorChange
 70
    16
177
     3
291
     1
 70
    58
 90
        2
176
     1
 90
        2
176
     1
 90
        3
176
     1
 90
        0
176
     1
 40
0.6
176
     1
 40
30.0
176
     1
 62
     8
420
  8421504
176
     1
 90
        1
176
     1
 90
        4
176
     1
 62
     7
176
     1
 62
   257
176
     1
 90
        1
176
     1
 90
        1
176
     1
 40
1.0
176
     1
 90
        8
176
     1
 62
     8
420
  8421504
176
     1
 40
1.0
176
     1
 90
        1
176
     1
 90
        6
176
     1
 90
        2
176
     1
 62
     7
176
     1
 90
        5
176
     1
 90
        0
176
     1
 90
        0
176
     1
290
     0
176
     1
 90
        1
176
     1
 40
0.0
176
     1
 90
        0
176
     1
290
     0
176
     1
290
     1
176
     1
290
     1
176
     1
290
     0
176
     1
290
     0
176
     1
290
     0
176
     1
290
     0
176
     1
290
     0
176
     1
290
     0
176
     1
 90
       50
176
     1
 40
0.0
176
     1
 40
1.0
176
     1
 90
        0
176
     1
 62
    18
420
        0
176
     1
 90
       50
176
     1
 90
        3
176
     1
 62
     5
420
      255
176
     1
290
     0
176
     1
 90
       50
176
     1
 90
       50
176
     1
 90
       50
176
     1
290
     0
176
     1
 90
       50
176
     1
 62
   256
176
     0
 40
1.0
176
     0
 90
        2
176
     1
  1
strokes_ogs.tif
176
     1
290
     0
176
     1
 40
1.0
176
     1
 40
1.0
176
     1
  0
VISUALSTYLE
  5
32
102
{ACAD_REACTORS
330
29
102
}
330
29
100
AcDbVisualStyle
  2
Conceptual
 70
     9
177
     3
291
     0
 70
    58
 90
        3
176
     1
 90
        2
176
     1
 90
        0
176
     1
 90
        0
176
     1
 40
0.6
176
     1
 40
30.0
176
     1
 62
     7
420
 16777215
176
     1
 90
        2
176
     1
 90
        2
176
     1
 62
     7
176
     1
 62
   257
176
     1
 90
        1
176
     1
 90
        1
176
     1
 40
179.0
176
     1
 90
        8
176
     1
 62
     7
176
     1
 40
1.0
176
     1
 90
        1
176
     1
 90
        6
176
     1
 90
        2
176
     1
 62
     7
176
     1
 90
        3
176
     1
 90
        0
176
     1
 90
        0
176
     1
290
     0
176
     1
 90
        1
176
     1
 40
0.0
176
     1
 90
        0
176
     1
290
     0
176
     1
290
     1
176
     1
290
     1
176
     1
290
     0
176
     1
290
     0
176
     1
290
     0
176
     1
290
     0
176
     1
290
     0
176
     1
290
     0
176
     1
 90
       50
176
     1
 40
0.0
176
     1
 40
1.0
176
     1
 90
        0
176
     1
 62
    18
420
        0
176
     1
 90
       50
176
     1
 90
        3
176
     1
 62
     5
420
      255
176
     1
290
     0
176
     1
 90
       50
176
     1
 90
       50
176
     1
 90
       50
176
     1
290
     0
176
     1
 90
       50
176
     1
 62
   256
176
     0
 40
1.0
176
     0
 90
        2
176
     1
  1
strokes_ogs.tif
176
     1
290
     0
176
     1
 40
1.0
176
     1
 40
1.0
176
     1
  0
VISUALSTYLE
  5
34
102
{ACAD_REACTORS
330
29
102
}
330
29
100
AcDbVisualStyle
  2
Dim
 70
    11
177
     3
291
     1
 70
    58
 90
        2
176
     1
 90
        2
176
     1
 90
        0
176
     1
 90
        0
176
     1
 40
0.6
176
     1
 40
30.0
176
     1
 62
     7
420
 16777215
176
     1
 90
        1
176
     1
 90
        4
176
     1
 62
     7
176
     1
 62
   257
176
     1
 90
        1
176
     1
 90
        1
176
     1
 40
1.0
176
     1
 90
        8
176
     1
 62
     7
176
     1
 40
1.0
176
     1
 90
        1
176
     1
 90
        6
176
     1
 90
        2
176
     1
 62
     7
176
     1
 90
        5
176
     1
 90
        0
176
     1
 90
        0
176
     1
290
     0
176
     1
 90
        1
176
     1
 40
-50.0
176
     1
 90
        0
176
     1
290
     0
176
     1
290
     1
176
     1
290
     1
176
     1
290
     0
176
     1
290
     0
176
     1
290
     0
176
     1
290
     0
176
     1
290
     0
176
     1
290
     0
176
     1
 90
       50
176
     1
 40
0.0
176
     1
 40
1.0
176
     1
 90
        0
176
     1
 62
    18
420
        0
176
     1
 90
       50
176
     1
 90
        3
176
     1
 62
     5
420
      255
176
     1
290
     0
176
     1
 90
       50
176
     1
 90
       50
176
     1
 90
       50
176
     1
290
     0
176
     1
 90
       50
176
     1
 62
   256
176
     0
 40
1.0
176
     0
 90
        2
176
     1
  1
strokes_ogs.tif
176
     1
290
     0
176
     1
 40
1.0
176
     1
 40
1.0
176
     1
  0
VISUALSTYLE
  5
41
102
{ACAD_REACTORS
330
29
102
}
330
29
100
AcDbVisualStyle
  2
EdgeColorOff
 70
    22
177
     3
291
     1
 70
    58
 90
        2
176
     0
 90
        2
176
     0
 90
        0
176
     0
 90
        0
176
     0
 40
0.6
176
     0
 40
30.0
176
     0
 62
     7
420
 16777215
176
     0
 90
        1
176
     0
 90
        4
176
     0
 62
     7
176
     0
 62
   257
176
     0
 90
        1
176
     0
 90
        1
176
     0
 40
1.0
176
     0
 90
        8
176
     2
 62
     7
176
     0
 40
1.0
176
     0
 90
        1
176
     0
 90
        6
176
     0
 90
        2
176
     0
 62
     7
176
     0
 90
        5
176
     0
 90
        0
176
     0
 90
        0
176
     0
290
     0
176
     0
 90
        1
176
     0
 40
0.0
176
     0
 90
        0
176
     0
290
     0
176
     0
290
     1
176
     0
290
     1
176
     0
290
     0
176
     0
290
     0
176
     0
290
     0
176
     0
290
     0
176
     0
290
     0
176
     0
290
     0
176
     0
 90
       50
176
     0
 40
0.0
176
     0
 40
1.0
176
     0
 90
        0
176
     0
 62
    18
420
        0
176
     0
 90
       50
176
     0
 90
        3
176
     0
 62
     5
420
      255
176
     0
290
     0
176
     0
 90
       50
176
     0
 90
       50
176
     0
 90
       50
176
     0
290
     0
176
     0
 90
       50
176
     0
 62
   256
176
     0
 40
1.0
176
     0
 90
        2
176
     0
  1
strokes_ogs.tif
176
     0
290
     0
176
     0
 40
1.0
176
     0
 40
1.0
176
     0
  0
VISUALSTYLE
  5
38
102
{ACAD_REACTORS
330
29
102
}
330
29
100
AcDbVisualStyle
  2
Facepattern
 70
    15
177
     3
291
     1
 70
    58
 90
        2
176
     1
 90
        2
176
     1
 90
        0
176
     1
 90
        0
176
     1
 40
0.6
176
     1
 40
30.0
176
     1
 62
     7
420
 16777215
176
     1
 90
        1
176
     1
 90
        4
176
     1
 62
     7
176
     1
 62
   257
176
     1
 90
        1
176
     1
 90
        1
176
     1
 40
1.0
176
     1
 90
        8
176
     1
 62
     7
176
     1
 40
1.0
176
     1
 90
        1
176
     1
 90
        6
176
     1
 90
        2
176
     1
 62
     7
176
     1
 90
        5
176
     1
 90
        0
176
     1
 90
        0
176
     1
290
     0
176
     1
 90
        1
176
     1
 40
0.0
176
     1
 90
        0
176
     1
290
     0
176
     1
290
     1
176
     1
290
     1
176
     1
290
     0
176
     1
290
     0
176
     1
290
     0
176
     1
290
     0
176
     1
290
     0
176
     1
290
     0
176
     1
 90
       50
176
     1
 40
0.0
176
     1
 40
1.0
176
     1
 90
        0
176
     1
 62
    18
420
        0
176
     1
 90
       50
176
     1
 90
        3
176
     1
 62
     5
420
      255
176
     1
290
     0
176
     1
 90
       50
176
     1
 90
       50
176
     1
 90
       50
176
     1
290
     0
176
     1
 90
       50
176
     1
 62
   256
176
     0
 40
1.0
176
     0
 90
        2
176
     1
  1
strokes_ogs.tif
176
     1
290
     0
176
     1
 40
1.0
176
     1
 40
1.0
176
     1
  0
VISUALSTYLE
  5
2A
102
{ACAD_REACTORS
330
29
102
}
330
29
100
AcDbVisualStyle
  2
Flat
 70
     0
177
     3
291
     1
 70
    58
 90
        2
176
     1
 90
        1
176
     1
 90
        1
176
     1
 90
        2
176
     1
 40
0.6
176
     1
 40
30.0
176
     1
 62
     7
420
 16777215
176
     1
 90
        0
176
     1
 90
        0
176
     1
 62
     7
176
     1
 62
   257
176
     1
 90
        1
176
     1
 90
        1
176
     1
 40
1.0
176
     1
 90
        8
176
     1
 62
     7
176
     1
 40
1.0
176
     1
 90
        1
176
     1
 90
        6
176
     1
 90
        2
176
     1
 62
     7
176
     1
 90
        5
176
     1
 90
        0
176
     1
 90
        0
176
     1
290
     0
176
     1
 90
       13
176
     1
 40
0.0
176
     1
 90
        0
176
     1
290
     0
176
     1
290
     1
176
     1
290
     1
176
     1
290
     0
176
     1
290
     0
176
     1
290
     0
176
     1
290
     0
176
     1
290
     0
176
     1
290
     0
176
     1
 90
       50
176
     1
 40
0.0
176
     1
 40
1.0
176
     1
 90
        0
176
     1
 62
    18
420
        0
176
     1
 90
       50
176
     1
 90
        3
176
     1
 62
     5
420
      255
176
     1
290
     0
176
     1
 90
       50
176
     1
 90
       50
176
     1
 90
       50
176
     1
290
     0
176
     1
 90
       50
176
     1
 62
   256
176
     0
 40
1.0
176
     0
 90
        2
176
     1
  1
strokes_ogs.tif
176
     1
290
     0
176
     1
 40
1.0
176
     1
 40
1.0
176
     1
  0
VISUALSTYLE
  5
2B
102
{ACAD_REACTORS
330
29
102
}
330
29
100
AcDbVisualStyle
  2
FlatWithEdges
 70
     1
177
     3
291
     1
 70
    58
 90
        2
176
     1
 90
        1
176
     1
 90
        1
176
     1
 90
        2
176
     1
 40
0.6
176
     1
 40
30.0
176
     1
 62
     7
420
 16777215
176
     1
 90
        1
176
     1
 90
        0
176
     1
 62
     7
176
     1
 62
   257
176
     1
 90
        1
176
     1
 90
        1
176
     1
 40
1.0
176
     1
 90
        0
176
     1
 62
   257
176
     1
 40
1.0
176
     1
 90
        1
176
     1
 90
        6
176
     1
 90
        2
176
     1
 62
     7
176
     1
 90
        5
176
     1
 90
        0
176
     1
 90
        0
176
     1
290
     0
176
     1
 90
       13
176
     1
 40
0.0
176
     1
 90
        0
176
     1
290
     0
176
     1
290
     1
176
     1
290
     1
176
     1
290
     0
176
     1
290
     0
176
     1
290
     0
176
     1
290
     0
176
     1
290
     0
176
     1
290
     0
176
     1
 90
       50
176
     1
 40
0.0
176
     1
 40
1.0
176
     1
 90
        0
176
     1
 62
    18
420
        0
176
     1
 90
       50
176
     1
 90
        3
176
     1
 62
     5
420
      255
176
     1
290
     0
176
     1
 90
       50
176
     1
 90
       50
176
     1
 90
       50
176
     1
290
     0
176
     1
 90
       50
176
     1
 62
   256
176
     0
 40
1.0
176
     0
 90
        2
176
     1
  1
strokes_ogs.tif
176
     1
290
     0
176
     1
 40
1.0
176
     1
 40
1.0
176
     1
  0
VISUALSTYLE
  5
2C
102
{ACAD_REACTORS
330
29
102
}
330
29
100
AcDbVisualStyle
  2
Gouraud
 70
     2
177
     3
291
     1
 70
    58
 90
        2
176
     1
 90
        2
176
     1
 90
        1
176
     1
 90
        2
176
     1
 40
0.6
176
     1
 40
30.0
176
     1
 62
     7
420
 16777215
176
     1
 90
        0
176
     1
 90
        0
176
     1
 62
     7
176
     1
 62
   257
176
     1
 90
        1
176
     1
 90
        1
176
     1
 40
1.0
176
     1
 90
        0
176
     1
 62
     7
176
     1
 40
1.0
176
     1
 90
        1
176
     1
 90
        6
176
     1
 90
        2
176
     1
 62
     7
176
     1
 90
        5
176
     1
 90
        0
176
     1
 90
        0
176
     1
290
     0
176
     1
 90
       13
176
     1
 40
0.0
176
     1
 90
        0
176
     1
290
     0
176
     1
290
     1
176
     1
290
     1
176
     1
290
     0
176
     1
290
     0
176
     1
290
     0
176
     1
290
     0
176
     1
290
     0
176
     1
290
     0
176
     1
 90
       50
176
     1
 40
0.0
176
     1
 40
1.0
176
     1
 90
        0
176
     1
 62
    18
420
        0
176
     1
 90
       50
176
     1
 90
        3
176
     1
 62
     5
420
      255
176
     1
290
     0
176
     1
 90
       50
176
     1
 90
       50
176
     1
 90
       50
176
     1
290
     0
176
     1
 90
       50
176
     1
 62
   256
176
     0
 40
1.0
176
     0
 90
        2
176
     1
  1
strokes_ogs.tif
176
     1
290
     0
176
     1
 40
1.0
176
     1
 40
1.0
176
     1
  0
VISUALSTYLE
  5
2D
102
{ACAD_REACTORS
330
29
102
}
330
29
100
AcDbVisualStyle
  2
GouraudWithEdges
 70
     3
177
     3
291
     1
 70
    58
 90
        2
176
     1
 90
        2
176
     1
 90
        1
176
     1
 90
        2
176
     1
 40
0.6
176
     1
 40
30.0
176
     1
 62
     7
420
 16777215
176
     1
 90
        1
176
     1
 90
        0
176
     1
 62
     7
176
     1
 62
   257
176
     1
 90
        1
176
     1
 90
        1
176
     1
 40
1.0
176
     1
 90
        0
176
     1
 62
   257
176
     1
 40
1.0
176
     1
 90
        1
176
     1
 90
        6
176
     1
 90
        2
176
     1
 62
     7
176
     1
 90
        5
176
     1
 90
        0
176
     1
 90
        0
176
     1
290
     0
176
     1
 90
       13
176
     1
 40
0.0
176
     1
 90
        0
176
     1
290
     0
176
     1
290
     1
176
     1
290
     1
176
     1
290
     0
176
     1
290
     0
176
     1
290
     0
176
     1
290
     0
176
     1
290
     0
176
     1
290
     0
176
     1
 90
       50
176
     1
 40
0.0
176
     1
 40
1.0
176
     1
 90
        0
176
     1
 62
    18
420
        0
176
     1
 90
       50
176
     1
 90
        3
176
     1
 62
     5
420
      255
176
     1
290
     0
176
     1
 90
       50
176
     1
 90
       50
176
     1
 90
       50
176
     1
290
     0
176
     1
 90
       50
176
     1
 62
   256
176
     0
 40
1.0
176
     0
 90
        2
176
     1
  1
strokes_ogs.tif
176
     1
290
     0
176
     1
 40
1.0
176
     1
 40
1.0
176
     1
  0
VISUALSTYLE
  5
31
102
{ACAD_REACTORS
330
29
102
}
330
29
100
AcDbVisualStyle
  2
Hidden
 70
     6
177
     3
291
     0
 70
    58
 90
        1
176
     1
 90
        2
176
     1
 90
        2
176
     1
 90
        0
176
     1
 40
0.6
176
     1
 40
30.0
176
     1
 62
     7
420
 16777215
176
     1
 90
        2
176
     1
 90
        2
176
     1
 62
     7
176
     1
 62
   257
176
     1
 90
        2
176
     1
 90
        1
176
     1
 40
40.0
176
     1
 90
        0
176
     1
 62
   257
176
     1
 40
1.0
176
     1
 90
        1
176
     1
 90
        6
176
     1
 90
        2
176
     1
 62
     7
176
     1
 90
        3
176
     1
 90
        0
176
     1
 90
        0
176
     1
290
     0
176
     1
 90
        1
176
     1
 40
0.0
176
     1
 90
        0
176
     1
290
     0
176
     1
290
     1
176
     1
290
     1
176
     1
290
     0
176
     1
290
     0
176
     1
290
     0
176
     1
290
     0
176
     1
290
     0
176
     1
290
     0
176
     1
 90
       50
176
     1
 40
0.0
176
     1
 40
1.0
176
     1
 90
        0
176
     1
 62
    18
420
        0
176
     1
 90
       50
176
     1
 90
        3
176
     1
 62
     5
420
      255
176
     1
290
     0
176
     1
 90
       50
176
     1
 90
       50
176
     1
 90
       50
176
     1
290
     0
176
     1
 90
       50
176
     1
 62
   256
176
     0
 40
1.0
176
     0
 90
        2
176
     1
  1
strokes_ogs.tif
176
     1
290
     0
176
     1
 40
1.0
176
     1
 40
1.0
176
     1
  0
VISUALSTYLE
  5
3F
102
{ACAD_REACTORS
330
29
102
}
330
29
100
AcDbVisualStyle
  2
JitterOff
 70
    20
177
     3
291
     1
 70
    58
 90
        2
176
     0
 90
        2
176
     0
 90
        0
176
     0
 90
        0
176
     0
 40
0.6
176
     0
 40
30.0
176
     0
 62
     7
420
 16777215
176
     0
 90
        1
176
     0
 90
        4
176
     0
 62
     7
176
     0
 62
   257
176
     0
 90
        1
176
     0
 90
        1
176
     0
 40
1.0
176
     0
 90
       10
176
     2
 62
     7
176
     0
 40
1.0
176
     0
 90
        1
176
     0
 90
        6
176
     0
 90
        2
176
     0
 62
     7
176
     0
 90
        5
176
     0
 90
        0
176
     0
 90
        0
176
     0
290
     0
176
     0
 90
        1
176
     0
 40
0.0
176
     0
 90
        0
176
     0
290
     0
176
     0
290
     1
176
     0
290
     1
176
     0
290
     0
176
     0
290
     0
176
     0
290
     0
176
     0
290
     0
176
     0
290
     0
176
     0
290
     0
176
     0
 90
       50
176
     0
 40
0.0
176
     0
 40
1.0
176
     0
 90
        0
176
     0
 62
    18
420
        0
176
     0
 90
       50
176
     0
 90
        3
176
     0
 62
     5
420
      255
176
     0
290
     0
176
     0
 90
       50
176
     0
 90
       50
176
     0
 90
       50
176
     0
290
     0
176
     0
 90
       50
176
     0
 62
   256
176
     0
 40
1.0
176
     0
 90
        2
176
     0
  1
strokes_ogs.tif
176
     0
290
     0
176
     0
 40
1.0
176
     0
 40
1.0
176
     0
  0
VISUALSTYLE
  5
37
102
{ACAD_REACTORS
330
29
102
}
330
29
100
AcDbVisualStyle
  2
Linepattern
 70
    14
177
     3
291
     1
 70
    58
 90
        2
176
     1
 90
        2
176
     1
 90
        0
176
     1
 90
        0
176
     1
 40
0.6
176
     1
 40
30.0
176
     1
 62
     7
420
 16777215
176
     1
 90
        1
176
     1
 90
        4
176
     1
 62
     7
176
     1
 62
   257
176
     1
 90
        7
176
     1
 90
        7
176
     1
 40
1.0
176
     1
 90
        8
176
     1
 62
     7
176
     1
 40
1.0
176
     1
 90
        1
176
     1
 90
        6
176
     1
 90
        2
176
     1
 62
     7
176
     1
 90
        5
176
     1
 90
        0
176
     1
 90
        0
176
     1
290
     0
176
     1
 90
        1
176
     1
 40
0.0
176
     1
 90
        0
176
     1
290
     0
176
     1
290
     1
176
     1
290
     1
176
     1
290
     0
176
     1
290
     0
176
     1
290
     0
176
     1
290
     0
176
     1
290
     0
176
     1
290
     0
176
     1
 90
       50
176
     1
 40
0.0
176
     1
 40
1.0
176
     1
 90
        0
176
     1
 62
    18
420
        0
176
     1
 90
       50
176
     1
 90
        3
176
     1
 62
     5
420
      255
176
     1
290
     0
176
     1
 90
       50
176
     1
 90
       50
176
     1
 90
       50
176
     1
290
     0
176
     1
 90
       50
176
     1
 62
   256
176
     0
 40
1.0
176
     0
 90
        2
176
     1
  1
strokes_ogs.tif
176
     1
290
     0
176
     1
 40
1.0
176
     1
 40
1.0
176
     1
  0
VISUALSTYLE
  5
40
102
{ACAD_REACTORS
330
29
102
}
330
29
100
AcDbVisualStyle
  2
OverhangOff
 70
    21
177
     3
291
     1
 70
    58
 90
        2
176
     0
 90
        2
176
     0
 90
        0
176
     0
 90
        0
176
     0
 40
0.6
176
     0
 40
30.0
176
     0
 62
     7
420
 16777215
176
     0
 90
        1
176
     0
 90
        4
176
     0
 62
     7
176
     0
 62
   257
176
     0
 90
        1
176
     0
 90
        1
176
     0
 40
1.0
176
     0
 90
        9
176
     2
 62
     7
176
     0
 40
1.0
176
     0
 90
        1
176
     0
 90
        6
176
     0
 90
        2
176
     0
 62
     7
176
     0
 90
        5
176
     0
 90
        0
176
     0
 90
        0
176
     0
290
     0
176
     0
 90
        1
176
     0
 40
0.0
176
     0
 90
        0
176
     0
290
     0
176
     0
290
     1
176
     0
290
     1
176
     0
290
     0
176
     0
290
     0
176
     0
290
     0
176
     0
290
     0
176
     0
290
     0
176
     0
290
     0
176
     0
 90
       50
176
     0
 40
0.0
176
     0
 40
1.0
176
     0
 90
        0
176
     0
 62
    18
420
        0
176
     0
 90
       50
176
     0
 90
        3
176
     0
 62
     5
420
      255
176
     0
290
     0
176
     0
 90
       50
176
     0
 90
       50
176
     0
 90
       50
176
     0
290
     0
176
     0
 90
       50
176
     0
 62
   256
176
     0
 40
1.0
176
     0
 90
        2
176
     0
  1
strokes_ogs.tif
176
     0
290
     0
176
     0
 40
1.0
176
     0
 40
1.0
176
     0
  0
VISUALSTYLE
  5
33
102
{ACAD_REACTORS
330
29
102
}
330
29
100
AcDbVisualStyle
  2
Realistic
 70
     8
177
     3
291
     0
 70
    58
 90
        2
176
     1
 90
        3
176
     1
 90
        0
176
     1
 90
        2
176
     1
 40
0.6
176
     1
 40
30.0
176
     1
 62
     7
420
 16777215
176
     1
 90
        0
176
     1
 90
        0
176
     1
 62
     7
176
     1
 62
   257
176
     1
 90
        1
176
     1
 90
        1
176
     1
 40
1.0
176
     1
 90
        8
176
     1
 62
   257
176
     1
 40
1.0
176
     1
 90
        1
176
     1
 90
        6
176
     1
 90
        2
176
     1
 62
     7
176
     1
 90
        3
176
     1
 90
        0
176
     1
 90
        0
176
     1
290
     0
176
     1
 90
       13
176
     1
 40
0.0
176
     1
 90
        0
176
     1
290
     0
176
     1
290
     1
176
     1
290
     1
176
     1
290
     0
176
     1
290
     0
176
     1
290
     0
176
     1
290
     0
176
     1
290
     0
176
     1
290
     0
176
     1
 90
       50
176
     1
 40
0.0
176
     1
 40
1.0
176
     1
 90
        0
176
     1
 62
    18
420
        0
176
     1
 90
       50
176
     1
 90
        3
176
     1
 62
     5
420
      255
176
     1
290
     0
176
     1
 90
       50
176
     1
 90
       50
176
     1
 90
       50
176
     1
290
     0
176
     1
 90
       50
176
     1
 62
   256
176
     0
 40
1.0
176
     0
 90
        2
176
     1
  1
strokes_ogs.tif
176
     1
290
     0
176
     1
 40
1.0
176
     1
 40
1.0
176
     1
  0
VISUALSTYLE
  5
3E
102
{ACAD_REACTORS
330
29
102
}
330
29
100
AcDbVisualStyle
  2
Shaded
 70
    27
177
     3
291
     0
 70
    58
 90
        2
176
     1
 90
        2
176
     1
 90
        1
176
     1
 90
        2
176
     1
 40
0.6
176
     1
 40
30.0
176
     1
 62
     7
420
 16777215
176
     1
 90
        0
176
     1
 90
        4
176
     1
 62
     7
176
     1
 62
   257
176
     1
 90
        1
176
     1
 90
        1
176
     1
 40
1.0
176
     1
 90
        8
176
     1
 62
   257
176
     1
 40
1.0
176
     1
 90
        1
176
     1
 90
        6
176
     1
 90
        2
176
     1
 62
     8
420
  7895160
176
     1
 90
        3
176
     1
 90
        0
176
     1
 90
        0
176
     1
290
     0
176
     1
 90
        5
176
     1
 40
0.0
176
     1
 90
        0
176
     1
290
     0
176
     1
290
     1
176
     1
290
     1
176
     1
290
     0
176
     1
290
     0
176
     1
290
     0
176
     1
290
     0
176
     1
290
     0
176
     1
290
     0
176
     1
 90
       50
176
     1
 40
0.0
176
     1
 40
1.0
176
     1
 90
        0
176
     1
 62
    18
420
        0
176
     1
 90
       50
176
     1
 90
        3
176
     1
 62
     5
420
      255
176
     1
290
     0
176
     1
 90
       50
176
     1
 90
       50
176
     1
 90
       50
176
     1
290
     0
176
     1
 90
       50
176
     1
 62
   256
176
     0
 40
1.0
176
     0
 90
        2
176
     1
  1
strokes_ogs.tif
176
     1
290
     0
176
     1
 40
1.0
176
     1
 40
1.0
176
     1
  0
VISUALSTYLE
  5
3D
102
{ACAD_REACTORS
330
29
102
}
330
29
100
AcDbVisualStyle
  2
Shaded with edges
 70
    26
177
     3
291
     0
 70
    58
 90
        2
176
     1
 90
        2
176
     1
 90
        1
176
     1
 90
        2
176
     1
 40
0.6
176
     1
 40
30.0
176
     1
 62
     7
420
 16777215
176
     1
 90
        1
176
     1
 90
       10
176
     1
 62
     7
176
     1
 62
   257
176
     1
 90
        2
176
     1
 90
        1
176
     1
 40
1.0
176
     1
 90
        8
176
     1
 62
   257
176
     1
 40
1.0
176
     1
 90
        1
176
     1
 90
        6
176
     1
 90
        2
176
     1
 62
     7
176
     1
 90
        3
176
     1
 90
        0
176
     1
 90
        0
176
     1
290
     0
176
     1
 90
        5
176
     1
 40
0.0
176
     1
 90
        0
176
     1
290
     0
176
     1
290
     1
176
     1
290
     1
176
     1
290
     0
176
     1
290
     0
176
     1
290
     0
176
     1
290
     0
176
     1
290
     0
176
     1
290
     0
176
     1
 90
       50
176
     1
 40
0.0
176
     1
 40
1.0
176
     1
 90
        0
176
     1
 62
    18
420
        0
176
     1
 90
       50
176
     1
 90
        3
176
     1
 62
     5
420
      255
176
     1
290
     0
176
     1
 90
       50
176
     1
 90
       50
176
     1
 90
       50
176
     1
290
     0
176
     1
 90
       50
176
     1
 62
   256
176
     0
 40
1.0
176
     0
 90
        2
176
     1
  1
strokes_ogs.tif
176
     1
290
     0
176
     1
 40
1.0
176
     1
 40
1.0
176
     1
  0
VISUALSTYLE
  5
3A
102
{ACAD_REACTORS
330
29
102
}
330
29
100
AcDbVisualStyle
  2
Shades of Gray
 70
    23
177
     3
291
     0
 70
    58
 90
        2
176
     1
 90
        2
176
     1
 90
        3
176
     1
 90
        0
176
     1
 40
0.6
176
     1
 40
30.0
176
     1
 62
     7
420
 16777215
176
     1
 90
        2
176
     1
 90
        2
176
     1
 62
     7
176
     1
 62
     7
176
     1
 90
        1
176
     1
 90
        1
176
     1
 40
40.0
176
     1
 90
        8
176
     1
 62
     7
176
     1
 40
1.0
176
     1
 90
        1
176
     1
 90
        6
176
     1
 90
        2
176
     1
 62
     7
176
     1
 90
        3
176
     1
 90
        0
176
     1
 90
        0
176
     1
290
     0
176
     1
 90
        1
176
     1
 40
0.0
176
     1
 90
        0
176
     1
290
     0
176
     1
290
     1
176
     1
290
     1
176
     1
290
     0
176
     1
290
     0
176
     1
290
     0
176
     1
290
     0
176
     1
290
     0
176
     1
290
     0
176
     1
 90
       50
176
     1
 40
0.0
176
     1
 40
1.0
176
     1
 90
        0
176
     1
 62
    18
420
        0
176
     1
 90
       50
176
     1
 90
        3
176
     1
 62
     5
420
      255
176
     1
290
     0
176
     1
 90
       50
176
     1
 90
       50
176
     1
 90
       50
176
     1
290
     0
176
     1
 90
       50
176
     1
 62
   256
176
     0
 40
1.0
176
     0
 90
        2
176
     1
  1
strokes_ogs.tif
176
     1
290
     0
176
     1
 40
1.0
176
     1
 40
1.0
176
     1
  0
VISUALSTYLE
  5
3B
102
{ACAD_REACTORS
330
29
102
}
330
29
100
AcDbVisualStyle
  2
Sketchy
 70
    24
177
     3
291
     0
 70
    58
 90
        1
176
     1
 90
        2
176
     1
 90
        2
176
     1
 90
        0
176
     1
 40
0.6
176
     1
 40
30.0
176
     1
 62
     7
420
 16777215
176
     1
 90
        2
176
     1
 90
        2
176
     1
 62
     7
176
     1
 62
     7
176
     1
 90
        1
176
     1
 90
        1
176
     1
 40
40.0
176
     1
 90
       11
176
     1
 62
     7
176
     1
 40
1.0
176
     1
 90
        1
176
     1
 90
        6
176
     1
 90
        2
176
     1
 62
     7
176
     1
 90
        6
176
     1
 90
        0
176
     1
 90
        0
176
     1
290
     0
176
     1
 90
        1
176
     1
 40
0.0
176
     1
 90
        0
176
     1
290
     0
176
     1
290
     1
176
     1
290
     1
176
     1
290
     0
176
     1
290
     0
176
     1
290
     0
176
     1
290
     0
176
     1
290
     0
176
     1
290
     0
176
     1
 90
       50
176
     1
 40
0.0
176
     1
 40
1.0
176
     1
 90
        0
176
     1
 62
    18
420
        0
176
     1
 90
       50
176
     1
 90
        3
176
     1
 62
     5
420
      255
176
     1
290
     0
176
     1
 90
       50
176
     1
 90
       50
176
     1
 90
       50
176
     1
290
     0
176
     1
 90
       50
176
     1
 62
   256
176
     0
 40
1.0
176
     0
 90
        2
176
     1
  1
strokes_ogs.tif
176
     1
290
     0
176
     1
 40
1.0
176
     1
 40
1.0
176
     1
  0
VISUALSTYLE
  5
36
102
{ACAD_REACTORS
330
29
102
}
330
29
100
AcDbVisualStyle
  2
Thicken
 70
    13
177
     3
291
     1
 70
    58
 90
        2
176
     1
 90
        2
176
     1
 90
        0
176
     1
 90
        0
176
     1
 40
0.6
176
     1
 40
30.0
176
     1
 62
     7
420
 16777215
176
     1
 90
        1
176
     1
 90
        4
176
     1
 62
     7
176
     1
 62
   257
176
     1
 90
        1
176
     1
 90
        1
176
     1
 40
1.0
176
     1
 90
       12
176
     1
 62
     7
176
     1
 40
1.0
176
     1
 90
        1
176
     1
 90
        6
176
     1
 90
        2
176
     1
 62
     7
176
     1
 90
        5
176
     1
 90
        0
176
     1
 90
        0
176
     1
290
     0
176
     1
 90
        1
176
     1
 40
0.0
176
     1
 90
        0
176
     1
290
     0
176
     1
290
     1
176
     1
290
     1
176
     1
290
     0
176
     1
290
     0
176
     1
290
     0
176
     1
290
     0
176
     1
290
     0
176
     1
290
     0
176
     1
 90
       50
176
     1
 40
0.0
176
     1
 40
1.0
176
     1
 90
        0
176
     1
 62
    18
420
        0
176
     1
 90
       50
176
     1
 90
        3
176
     1
 62
     5
420
      255
176
     1
290
     0
176
     1
 90
       50
176
     1
 90
       50
176
     1
 90
       50
176
     1
290
     0
176
     1
 90
       50
176
     1
 62
   256
176
     0
 40
1.0
176
     0
 90
        2
176
     1
  1
strokes_ogs.tif
176
     1
290
     0
176
     1
 40
1.0
176
     1
 40
1.0
176
     1
  0
VISUALSTYLE
  5
30
102
{ACAD_REACTORS
330
29
102
}
330
29
100
AcDbVisualStyle
  2
Wireframe
 70
     5
177
     3
291
     0
 70
    58
 90
        0
176
     1
 90
        2
176
     1
 90
        0
176
     1
 90
        0
176
     1
 40
0.6
176
     1
 40
30.0
176
     1
 62
     7
420
 16777215
176
     1
 90
        1
176
     1
 90
        4
176
     1
 62
     7
176
     1
 62
   257
176
     1
 90
        1
176
     1
 90
        1
176
     1
 40
1.0
176
     1
 90
        0
176
     1
 62
   257
176
     1
 40
1.0
176
     1
 90
        1
176
     1
 90
        6
176
     1
 90
        2
176
     1
 62
     7
176
     1
 90
        3
176
     1
 90
        0
176
     1
 90
        0
176
     1
290
     0
176
     1
 90
        1
176
     1
 40
0.0
176
     1
 90
        0
176
     1
290
     0
176
     1
290
     1
176
     1
290
     1
176
     1
290
     0
176
     1
290
     0
176
     1
290
     0
176
     1
290
     0
176
     1
290
     0
176
     1
290
     0
176
     1
 90
       50
176
     1
 40
0.0
176
     1
 40
1.0
176
     1
 90
        0
176
     1
 62
    18
420
        0
176
     1
 90
       50
176
     1
 90
        3
176
     1
 62
     5
420
      255
176
     1
290
     0
176
     1
 90
       50
176
     1
 90
       50
176
     1
 90
       50
176
     1
290
     0
176
     1
 90
       50
176
     1
 62
   256
176
     0
 40
1.0
176
     0
 90
        2
176
     1
  1
strokes_ogs.tif
176
     1
290
     0
176
     1
 40
1.0
176
     1
 40
1.0
176
     1
  0
VISUALSTYLE
  5
3C
102
{ACAD_REACTORS
330
29
102
}
330
29
100
AcDbVisualStyle
  2
X-Ray
 70
    25
177
     3
291
     0
 70
    58
 90
        2
176
     1
 90
        2
176
     1
 90
        1
176
     1
 90
        1
176
     1
 40
0.5
176
     1
 40
30.0
176
     1
 62
     7
420
 16777215
176
     1
 90
        1
176
     1
 90
        0
176
     1
 62
     7
176
     1
 62
   257
176
     1
 90
        1
176
     1
 90
        1
176
     1
 40
1.0
176
     1
 90
        8
176
     1
 62
     7
176
     1
 40
1.0
176
     1
 90
        1
176
     1
 90
        6
176
     1
 90
        2
176
     1
 62
     7
176
     1
 90
        3
176
     1
 90
        0
176
     1
 90
        0
176
     1
290
     0
176
     1
 90
       13
176
     1
 40
0.0
176
     1
 90
        0
176
     1
290
     0
176
     1
290
     1
176
     1
290
     1
176
     1
290
     0
176
     1
290
     0
176
     1
290
     0
176
     1
290
     0
176
     1
290
     0
176
     1
290
     0
176
     1
 90
       50
176
     1
 40
0.0
176
     1
 40
1.0
176
     1
 90
        0
176
     1
 62
    18
420
        0
176
     1
 90
       50
176
     1
 90
        3
176
     1
 62
     5
420
      255
176
     1
290
     0
176
     1
 90
       50
176
     1
 90
       50
176
     1
 90
       50
176
     1
290
     0
176
     1
 90
       50
176
     1
 62
   256
176
     0
 40
1.0
176
     0
 90
        2
176
     1
  1
strokes_ogs.tif
176
     1
290
     0
176
     1
 40
1.0
176
     1
 40
1.0
176
     1
  0
DICTIONARYVAR
  5
81
102
{ACAD_REACTORS
330
7C
102
}
330
7C
100
DictionaryVariables
280
     0
  1
1:1
  0
DICTIONARYVAR
  5
7E
102
{ACAD_REACTORS
330
7C
102
}
330
7C
100
DictionaryVariables
280
     0
  1
STANDARD
  0
DICTIONARYVAR
  5
7D
102
{ACAD_REACTORS
330
7C
102
}
330
7C
100
DictionaryVariables
280
     0
  1
STANDARD
  0
DICTIONARYVAR
  5
7F
102
{ACAD_REACTORS
330
7C
102
}
330
7C
100
DictionaryVariables
280
     0
  1
Imperial24
  0
DICTIONARYVAR
  5
80
102
{ACAD_REACTORS
330
7C
102
}
330
7C
100
DictionaryVariables
280
     0
  1
Imperial24
  0
XRECORD
  5
35A
102
{ACAD_REACTORS
330
356
102
}
330
356
100
AcDbXrecord
280
     1
  1
BUILDING_ID
  1
Progetto per test valvole
  1
FLOOR_ID
  1
694395
  0
XRECORD
  5
358
102
{ACAD_REACTORS
330
356
102
}
330
356
100
AcDbXrecord
280
     1
  1
-2001160
  1
Apparecchi idraulici
  0
XRECORD
  5
359
102
{ACAD_REACTORS
330
356
102
}
330
356
100
AcDbXrecord
280
     1
  1
790271
  1
Body
  0
XRECORD
  5
357
102
{ACAD_REACTORS
330
356
102
}
330
356
100
AcDbXrecord
280
     1
  1
859151
  1
Automatic flow rate regulator valve_Caleffi_121 DN15 : 1/2''
  0
DICTIONARY
  5
1A
330
19
100
AcDbDictionary
280
     1
281
     1
  3
BUMPTILE
360
1C
  3
DIFFUSETILE
360
1B
  3
OPACITYTILE
360
1F
  3
REFLECTIONTILE
360
1E
  3
REFRACTIONTILE
360
20
  3
SPECULARTILE
360
1D
  0
DICTIONARY
  5
12
330
11
100
AcDbDictionary
280
     1
281
     1
  3
BUMPTILE
360
14
  3
DIFFUSETILE
360
13
  3
OPACITYTILE
360
17
  3
REFLECTIONTILE
360
16
  3
REFRACTIONTILE
360
18
  3
SPECULARTILE
360
15
  0
DICTIONARY
  5
22
330
21
100
AcDbDictionary
280
     1
281
     1
  3
BUMPTILE
360
24
  3
DIFFUSETILE
360
23
  3
OPACITYTILE
360
27
  3
REFLECTIONTILE
360
26
  3
REFRACTIONTILE
360
28
  3
SPECULARTILE
360
25
  0
DICTIONARY
  5
35D
330
65
100
AcDbDictionary
280
     1
281
     1
  3
ACAD_ROUNDTRIP_2008_TABLESTYLE_CELLSTYLEMAP
360
35E
  0
XRECORD
  5
1C
102
{ACAD_REACTORS
330
1A
102
}
330
1A
100
AcDbXrecord
280
     1
270
     1
271
     1
  0
XRECORD
  5
1B
102
{ACAD_REACTORS
330
1A
102
}
330
1A
100
AcDbXrecord
280
     1
270
     1
271
     1
  0
XRECORD
  5
1F
102
{ACAD_REACTORS
330
1A
102
}
330
1A
100
AcDbXrecord
280
     1
270
     1
271
     1
  0
XRECORD
  5
1E
102
{ACAD_REACTORS
330
1A
102
}
330
1A
100
AcDbXrecord
280
     1
270
     1
271
     1
  0
XRECORD
  5
20
102
{ACAD_REACTORS
330
1A
102
}
330
1A
100
AcDbXrecord
280
     1
270
     1
271
     1
  0
XRECORD
  5
1D
102
{ACAD_REACTORS
330
1A
102
}
330
1A
100
AcDbXrecord
280
     1
270
     1
271
     1
  0
XRECORD
  5
14
102
{ACAD_REACTORS
330
12
102
}
330
12
100
AcDbXrecord
280
     1
270
     1
271
     1
  0
XRECORD
  5
13
102
{ACAD_REACTORS
330
12
102
}
330
12
100
AcDbXrecord
280
     1
270
     1
271
     1
  0
XRECORD
  5
17
102
{ACAD_REACTORS
330
12
102
}
330
12
100
AcDbXrecord
280
     1
270
     1
271
     1
  0
XRECORD
  5
16
102
{ACAD_REACTORS
330
12
102
}
330
12
100
AcDbXrecord
280
     1
270
     1
271
     1
  0
XRECORD
  5
18
102
{ACAD_REACTORS
330
12
102
}
330
12
100
AcDbXrecord
280
     1
270
     1
271
     1
  0
XRECORD
  5
15
102
{ACAD_REACTORS
330
12
102
}
330
12
100
AcDbXrecord
280
     1
270
     1
271
     1
  0
XRECORD
  5
24
102
{ACAD_REACTORS
330
22
102
}
330
22
100
AcDbXrecord
280
     1
270
     1
271
     1
  0
XRECORD
  5
23
102
{ACAD_REACTORS
330
22
102
}
330
22
100
AcDbXrecord
280
     1
270
     1
271
     1
  0
XRECORD
  5
27
102
{ACAD_REACTORS
330
22
102
}
330
22
100
AcDbXrecord
280
     1
270
     1
271
     1
  0
XRECORD
  5
26
102
{ACAD_REACTORS
330
22
102
}
330
22
100
AcDbXrecord
280
     1
270
     1
271
     1
  0
XRECORD
  5
28
102
{ACAD_REACTORS
330
22
102
}
330
22
100
AcDbXrecord
280
     1
270
     1
271
     1
  0
XRECORD
  5
25
102
{ACAD_REACTORS
330
22
102
}
330
22
100
AcDbXrecord
280
     1
270
     1
271
     1
  0
CELLSTYLEMAP
  5
35E
102
{ACAD_REACTORS
330
35D
102
}
330
35D
100
AcDbCellStyleMap
 90
        3
300
CELLSTYLE
  1
TABLEFORMAT_BEGIN
 90
        5
170
     1
 91
        0
 92
    32768
 62
   257
 93
        1
300
CONTENTFORMAT
  1
CONTENTFORMAT_BEGIN
 90
        0
 91
        0
 92
      512
 93
        0
300

 40
0.0
140
1.0
 94
        5
 62
     0
340
55
144
0.25
309
CONTENTFORMAT_END
171
     0
 94
        0
309
TABLEFORMAT_END
  1
CELLSTYLE_BEGIN
 90
        1
 91
        1
300
_TITLE
309
CELLSTYLE_END
300
CELLSTYLE
  1
TABLEFORMAT_BEGIN
 90
        5
170
     1
 91
        0
 92
        0
 62
   257
 93
        1
300
CONTENTFORMAT
  1
CONTENTFORMAT_BEGIN
 90
        0
 91
        0
 92
      512
 93
        0
300

 40
0.0
140
1.0
 94
        5
 62
     0
340
55
144
0.18
309
CONTENTFORMAT_END
171
     0
 94
        0
309
TABLEFORMAT_END
  1
CELLSTYLE_BEGIN
 90
        2
 91
        1
300
_HEADER
309
CELLSTYLE_END
300
CELLSTYLE
  1
TABLEFORMAT_BEGIN
 90
        5
170
     1
 91
        0
 92
        0
 62
   257
 93
        1
300
CONTENTFORMAT
  1
CONTENTFORMAT_BEGIN
 90
        0
 91
        0
 92
      512
 93
        0
300

 40
0.0
140
1.0
 94
        2
 62
     0
340
55
144
0.18
309
CONTENTFORMAT_END
171
     0
 94
        0
309
TABLEFORMAT_END
  1
CELLSTYLE_BEGIN
 90
        3
 91
        2
300
_DATA
309
CELLSTYLE_END
  0
ENDSEC
  0
EOF
